Yun Hi Chala Chal - Swades

Discussion in 'Hindi Guitar Tabs - Submit or Request' started by GuitarMamu, Nov 16, 2004.

  1. GuitarMamu

    GuitarMamu New Member

    does anyone have the chords or tabs to this song....
    i listened to the song and the guitar part sounds gr8!

    if u have the chords plz post.....thanx! :beer:
     
  2. jacko

    jacko New Member

    my dear

    i've been asking 4 this all this while
     
  3. nishantsaran

    nishantsaran New Member

  4. invincible2k

    invincible2k New Member

    Intro:

    E------0-0-0-0-0-0-0-0--0-0-0-0-0-0-0-0-0-0-0-0------------
    B------5-5-5-5-5-5-5-5--3-3-3-3-3-3-3-2-2-2-2-2------------
    G---------------------------------------------------------------
    D---------------------------------------------------------------
    A---------------------------------------------------------------
    E---------------------------------------------------------------

    E------0-0-0-0-0-0-0-0-----------------------------------------
    B------3-3-3-3-3-3-3-3-----------------------------------------
    G---------------------------------------------------------------
    D---------------------------------------------------------------
    A---------------------------------------------------------------
    E---------------------------------------------------------------

    (Repeat till the song Starts )

    Chorus:

    [B}Yun hi chala chal rahi [A]Yun hi chala chal rahi
    Kitni Hasin hai yeah [A]duniya
    Bhool sare jhamele [A] Dekh phoolon ke mele
    Badi rangeen hai yeah [A]duniya

    Run dun tana dum
    [A]Run dun tana dum
    Rum dum dum tana dum [A]haiyaaan

    B A B A B A
    (Alaap)


    Stanza 1:

    [E]Yeah raasta ab kah raha [A]ab mujhse
    [E]Milne ko hai koi kahin [A]ab tujhse[E]

    [E]Yeah raasta ab kah raha [A]ab mujhse
    [E]Milne ko hai koi kahin [A]ab tujhse[E]


    Alaap :E A B chord progression with A as the pivot

    [F#]Dil ko hai kyun yeah betabi [E]kisse mulakat B]honi hai
    [F#]Jiska kab se armaan thaa [E]shaayad wahi baat [E]honi hai


    *note that Yun hi starts with E chord here...its to make the transition more smooth.. as E and B dont fall in the chord triad there is a slight disconnect if we start with B instead of E.

    [E]Yun hi chala chal rahi [A]Yun hi chala chal rahi
    Jeevan gaadi hai sam [A]bhaiya
    Aanson ki nadiya bhi hain [A]Khushiyon ki bagiya hai
    Rasta sab tera taken [A]bhaiya


    Yun hi....
    (Chorus)

    Lead 1:

    The Lead 1: Should be played on two guitars...what i have tabbed is the closest that you can get on a simple Six String :)

    E---9-10-10--9--10--10--10p-10p--10-12--10--12--10-----------
    B---------------------------------------------------------------------
    G---------------------------------------------------------------------
    D---------------------------------------------------------------------
    A---------------------------------------------------------------------
    E---------------------------------------------------------------------


    E--9-10-10--9--10--10--10p-10p-------------------------------------------
    B------------------------------------------------------------------------------
    G--------------------------------------------------------9----------------9--
    D-----------------------------------------9--11---12-----9--11--12-----------
    A-----------------------------------------------------------------------------
    E-----------------------------------------------------------------------------


    Dekho jidhar bhi in [E]rahaon [A]main
    Rang pighalte hain [E]nigahon [A]ma[E]in
    Thandi hawaha hai [E]thadi chaaon [A]hai
    Door woh jaane kiska [E]gaaon [A]hai

    Badal yeah kaisa chaaya
    [A]Dil yeha kahan le aaya
    [B]Sapna yea kya dikhlaya [A]hai [B]mujhko

    [E]Har sapna sach lage [A] Jo prem agan jale
    [D]Jo rah tu chale apne [E]mann ki

    [E]Har pal ki seep se [A]Moti hi tu chune jo [D]tu sada sune apne [E]mann ki


    [E]Yun hi chala chal rahi [A]Yun hi chala chal rahi
    [B]Jeevan gaadi hai sam [A]bhai[B]ya
    [B]Aanson ki nadiya bhi hain [A]Khushiyon ki bagiya hai
    [B]Rasta sab tera taken [A]bhai[B]ya


    Lead 2:

    E-----------------------------------------------------------------------------
    B----------------------------------------------------------------------------
    G----------------------------------------------------------------------------
    D-----------------7-7--7------7-7-7/9-----------------------------------
    A--5/7--7:7:7----------5/7----------------------------------------------
    E-----------------------------------------------------------------------------

    E-----------------------------------------------------------------------------
    B----------------------------------------------------------------------------
    G----------------------------------------------------------------------------
    D---5/9-9:9:9:9--7:7:7---5/7--5-5--4-------------------------------
    A-----------------------------------------------7-5--7---------------------
    E-----------------------------------------------------------------------------


    Stanza 2 is same as stanza 1.[/B][/B][/B][/B][/B][/B][/B]
     

Share This Page