Yemito Ivvala Rekkalochchi nattu - Andaala Rakshasi Full Tabs!

Discussion in 'Telugu Guitar Tabs - Submit or Request' started by abhishekmalyala, Jan 24, 2013.

  1. abhishekmalyala

    abhishekmalyala New Member

    Hi friends,
    This song was tabbed almost a month back after requests by fellow IGTians.
    But unfortunately I did not have enough time to type it and post it here.
    The tabs are entirely mine. Tabbed by ear, note to note on my acoustic guitar.
    There may be slight inconsistencies, as I am no expert.

    Scale: C major
    (some guitarists may argue F major. might be true as both A# and B are not used anywhere in the song)

    Notes used : C,D,E,F,G,A


    Tabs:

    ......Yemito ...ivaale ....rekka lochhinattu
    e>--------------------------------------------------
    B>----------------5--------------------------------
    G>-7-5-7----5-7-------7-5------------------------
    D>----------------------------7-5-----5-----------
    A>----------------------------------8--------------
    E>--------------------------------------------------

    .....Vinthaga akshannanchu thaakuthunna
    e>--------------------------------------------------
    B>----------------------------------5----------------
    G>---------------5-------------5-7------------------
    D>-7-5-7---5-7---7-5------7----------------------
    A>--------------------------------------------------
    E>--------------------------------------------------

    ....Gundene korukkuthinna Kallu chusi
    e>--------------------------------------------------
    B>----------------5--------------------------------
    G>-7-5-7----5-7-------7-5------------------------
    D>----------------------------7-5-----5-----------
    A>----------------------------------8--------------
    E>--------------------------------------------------
    ....nanthane Manassu navve modatisari
    e>--------------------------------------------------
    B>----------------------------------5----------------
    G>---------------5-------------5-7------------------
    D>-7-5-7---5-7---7-5------7----------------------
    A>--------------------------------------------------
    E>--------------------------------------------------

    ....Yemmarpidi yedari Yendamaavi
    e>--------------------------------------------------
    B>-6-6s5---5----5-6--5--------------------------------------
    G>--------7----7---------7-5-7---------------------------
    D>--------------------------------------------------
    A>--------------------------------------------------
    E>--------------------------------------------------

    ....vuppenai .....Munchene kale kaadu ga
    e>---------------------------------5-----------------
    B>5-5-6--------6s5---5-----8--8---6s5------------
    G>-------------------7-----7------------------------
    D>--------------------------------------------------
    A>--------------------------------------------------
    E>--------------------------------------------------

    ....Neevallane ....bharinchaleni
    e>--------------------------------------------------
    B>-6-6s5---5------5-6-5--------------------------
    G>--------7------7-------7------------------------
    D>--------------------------------------------------
    A>--------------------------------------------------
    E>--------------------------------------------------

    ....Theepi badhale
    e>--------------------------------------------------
    B>--------------------------------------------------
    G>-5-7-----5-5s7---------------------------------
    D>-------7-----------------------------------------
    A>--------------------------------------------------
    E>--------------------------------------------------

    Repeat for Yemito Ivvala rekkalochchi nattu...
    I will post the tabs for the stanza tomorrow night.

    Enjoy,
    Regards,
    Abhay.
     
  2. abhishekmalyala

    abhishekmalyala New Member

    I sometimes wonder why my "tomorrow night" never comes... That's why the full tabs are missing...
    I've got exams... so can't post tabs... If anyone needs them... pl comment and I shall post then them :)
    Enjoy,
    Abhay
     
  3. sandeepcwa

    sandeepcwa New Member



    thanks a lot abhay - wish u all the best for u exams
     
  4. abhishekmalyala

    abhishekmalyala New Member

    Well my exams are done... The results not very fine... so, exams again in november. :)
     
  5. Howlingwolf8

    Howlingwolf8 New Member

    cool one bro
    ty very much
     

Share This Page