Woh pehli baar-Guitar Tabs

Discussion in 'Hindi Guitar Tabs - Submit or Request' started by Navneet Arya, Sep 17, 2012.

  1. Navneet Arya

    Navneet Arya New Member

    B-7-6-7----7-6-7----------
    G-------8---------6-------
    Woh Pehli Baar Jab Ham Mile

    B-6---6------9---7-6-7--------
    G---8---6---------------8-----
    Hathon Mein Haath Jab ham chale

    E----------6-------------
    B-7-6-7-------9-7h9--6---
    G-------8----------------
    Hogaya yeh dil deewana

    B-6---6------9---7-6-7--------
    G---8---6---------------8-----
    hota hai pyar kya kisne jaana

    E-----6-6-6--9-7-6------6-------------
    B-7-9---------------9-9---9------------
    Teri aankhon mein jannat basa ke chala

    E----------6------------------6--------
    B-6-7-9-9-----9-7-6-7-7--9-----------
    Teri zulfo ki chauv mein chalta chala

    E-----6-6-6--9-7-6------6--------------
    B-7-9---------------9-9-----9-----------
    Tere naino mein chain, tere lab pe khushi

    E-----------6---------------------------
    B-6-7-9-9-----9-7-6-6h7-7-6-----------
    G-----------------------------8---------
    Tujhko hee main mohobbat bana ke chala

    B-7-6-7----7-6-7----------
    G-------8---------6-------
    Woh Pehli Baar Jab Ham Mile

    B-6---6------9---7-6-7--------
    G---8---6---------------8-----
    Ho Gaye Shuru Yeh Silsile

    E----------6-------------
    B-7-6-7-------9-7h9--6---
    G-------8----------------
    Hogaya yeh dil deewana

    B-6---6------9---7-6-7--------
    G---8---6---------------8-----
    hota hai pyar kya kisne jaana


    E-----6-6-6--9-7-6------6-------------
    B-7-9-------------9-9---9-------------
    Khilti kaliyon mein dhundhu bas tere disha

    E----------6----------------6--------
    B-6-7-9-9-----9-7-6-7-7--9----------
    Main na jaanu hai aakhir yeh kya karva

    E-----6-6-6--9-7-6------6-------------
    B-7-9---------------9-9---9------------
    Tujhe dekhu to aaye lab pe khushi

    E---------6---------------------------
    B-6-7-9-9-----9-7-6-6h7-7-6-----------
    G-----------------------------8---------
    Khuda na kare ho kabhi duriya

    B-7-6-7----7-6-7----------
    G-------8---------6-------
    Woh Pehli Baar Jab Ham Mile

    B-6---6------9---7-6-7--------
    G---8---6---------------8-----
    Hathon Mein Haath Jab ham chale

    E----------6-------------
    B-7-6-7-------9-7h9--6---
    G-------8----------------
    Hogaya yeh dil deewana

    B-6---6------9---7-6-7--------
    G---8---6---------------8-----
    hota hai pyar kya kisne jaana


    Keep rocking......:rock:
     
  2. Beautiful tabs bro....
    you got the typing wrong at a couple of places like in "Tujhko hee main mohobbat bana ke chala" the "8" in G string is to be played last..
    so just check it once and make those small changes....

    Also i felt that there were a couple of notes missed as in:

    E-----6-6-6--9-7-6------6-------------
    B-7-9----------------9-9---9------------
    Teri aankhon mein jannat basa ke chala
     
  3. Navneet Arya

    Navneet Arya New Member

    Thnx abhishek for ur suggestion....i also felt the same n edited them....
     

Share This Page