VAYU - TABS submission - KAISE MUJHE - GHAJINI

Discussion in 'Hindi Guitar Tabs - Submit or Request' started by god of guitar85, Dec 31, 2008.

  1. god of guitar85

    god of guitar85 GUITARPLAYER

    VAYU - TABS submission - KAISE MUJHE - GHAJINI ( FULL SONG)

    my tabs for this very beautiful composition by maestro A R Rahman!!
    these tabs go along with the original song!!!
    if any corrections do comment!!


    Kaise mujhe tum mil gayi
    E------------------------------------------------------------------------------------------------
    B----4--6--8---------------------------------------------------------------------------------------
    G------------8-7--3-3-3s5h7--------------------------------------------------------------------------------
    D--------------------------------------------------------------------------------------------------

    Kismat pe aaye na yakeen, Utar Aayee Jheel Mein,jaise chaand utarta hai kabhi,haule haule dheerey se

    E------------------------------------------------------------------------------------------------
    B----4--6--8----------------------3--3-3---3-6-6-4-4-3-3s1----------3----------------------------
    G------------8-7--3-3-3--3-3--5------------------------------3-3--3----------3-----3--------------
    D---------------------------------------------------------------------------4-----4----3-----------

    Gunguni Dhoop Ki Tarah Se,Tarannum Mein Tum,Chhookey Mujhe guzri ho yun,dekhoon tumhe,ya main sunoo

    E----1-1-1-1---------------------------3-3---6-6---------------------------------------------------------
    B-------------4-3------------1--3-3-----------------------3-----6-5-8-8---8-8-6-6------------
    G------------------3-3---3-------------------------3-3-5------------------------------------------
    D----------------------5-----------------------------------------------------------------------------

    Tum Ho Sukoon,tum ho junoon,kyun pehle na aaye tum

    E------------------------------------------------------------------------------------------------
    B---8-8--11-11----------3--6---6-6-5-5------5s8-6------------------------------------------------
    G-----------------3-3-5-------------------5--------------------------------------------------------
    D--------------------------------------------------------------------------------------------------


    Female singing part -

    Badle raaste jharne aur nadi badle reth ke tim tim

    E--------------------------------------------------------------------------------------------------
    B----4h6-4-4-4s3----4h6-4-4-4s3----4h6-4-4-4s3-------------3-----------------------------------------
    G-----------------------------------------------------------5--------------------------------------------
    D--------------------------------------------------------------------------------------------------

    Chhede zindagi dhun koi nayi badle barkha ki rim jhim

    E--------------------------------------------------------------------------------------------------
    B----4h6-4-4-4s3----4h6-4-4-4s3----4h6-4-4-4s3--------------3------------------------------
    G------------------------------------------------------------5------------------------------------
    D-------------------------------------------------------------------------------------------------

    Badlengi rituen ada par main rahungi sada usi tarah, Teri baahon mein baahein daal ke

    E---6-6-6-6-6-6--10-8h6-5-5s6----6-6-6-5-5---------------------------------------8-11-10-10-10-8-6-6-6-6---
    B------------------------------------------------- 8-6-6s8--6--10-10-11-11-10-11-----------------------------
    G--------------------------------------------------------------------------------------------------
    D--------------------------------------------------------------------------------------------------

    Har lamha Har pal
    E---6--10----6----6-------------------------------------------------------------------------------------
    B----------7----7------------------------------------------------------------------------------------
    G--------------------7------------------------------------------------------------------------------
    D--------------------------------------------------------------------------------------------------


    Aa…aa…aa… Aa… Aa… Aa…Aa…aa…aa… Aa… Aa… Aa…........................................

    E---6-8-10--8-11-10-8---------------8-6-5------------------------8-6-6-8h10-10-6-----------------
    B------------------------10-10s11--10--------6-6s8--6-10-11-10-----------------------------------
    G-------------------------------------------------------------------------------------------------
    D------------------------------------------------------------------------------------------------



    i'm on working on the chords of this song now. a really beautiful song!!!!!!
     
    maaani likes this.
  2. monika9

    monika9 New Member

    hey d tabs r very gud
    thanx
     
  3. maaani

    maaani New Member

    excellent tabs.... "God of guitar" i really love ur work... thanks dude.... keep posting bro...
     
  4. maaani

    maaani New Member

    u got 100 points ..

    hey u got 100 points out of 100:rock::rock: .. keep posting..

    plzz try to post the rest part(when female sings)....
     
  5. sandeepuae

    sandeepuae New Member

    Perfect...
     
  6. god of guitar85

    god of guitar85 GUITARPLAYER

    thanks monika, maani and sandeep

    @maani - yup i'll tab the female singing part as well in a day or two!!!
     
  7. jamitic

    jamitic New Member

    great work buddy.... 100% accurate. what about the chords and strumming???
     
  8. god of guitar85

    god of guitar85 GUITARPLAYER

    still working on chords!!!!

    guyz if u have figured it out plzz post it!!!
     
  9. priteshparab

    priteshparab New Member

    hey thnks bro..... d tabs r awesssome
     
  10. sandeepuae

    sandeepuae New Member

    Thanks a lot for updating it.... TYVM!!
     
  11. vivek.gaur0816

    vivek.gaur0816 VivekLoveRock....

    Here r the chords for this song------>

    Eb Gm
    Kaise mujhe tum mil gayi
    Eb Gm
    Kismat pe aaye na yakeen
    Bb
    Utar aye jheel main
    F Eb
    Jaise chaand utarata hai kabhi
    F#
    Houle haule
    Bb
    dhere se

    -------Bb
    gunguni dhoop ki tarah se
    Gm
    Tarnnum main tum
    Gm
    Chookey mujhe
    Bb
    Guzri ho yun
    C
    Dekhon tumhe
    F
    Ya mein sunoo
    Gm
    Tun ho sukoon
    Bb
    Tun ho junoon
    C
    Kyun pehle na
    F
    Aai tum
     
  12. parthhappy

    parthhappy New Member

    which is the scale????? nd is it right??????
     
  13. tez

    tez New Member

    thanks man ...
     
  14. ankitpatni

    ankitpatni New Member

    Good work

    good job buddy keeps it up
     
  15. god of guitar85

    god of guitar85 GUITARPLAYER

    these are the chords which i have figured out and used in my cover version
    check out the video for chord changes and strumming.it vil be helpful!!!

    http://in.youtube.com/watch?v=JliHfVo_v1s


    C Em G C Em G G Em G Cm G
    ho ho ho ho hoooooooo

    C Em G
    Kaise mujhe tu mil gayi
    C Em G
    Kismat pe aaye na yakeen
    G
    Utar aayi jheel mein
    Em G
    Jaise chaand utarta hai kabhi
    Cm
    Haule haule
    G
    Dheere se


    G Em
    Gunguni dhoop ki tarah se Tarannum mein tum

    C Em
    Chhoo ke mujhe Guzri ho yun

    G C D
    Dekhun tumhe Ya main sunu

    Em G
    Tum ho sukoon Tum ho junoon

    G Am D G
    Kyun pehle na Aayi tum
     
  16. sydneyc

    sydneyc New Member

    Thanks for the tabs.
     
  17. ~*ColDfire*~

    ~*ColDfire*~ New Member

    Nice tabs .. please submit the missing part also :)
     
  18. yogender negi

    yogender negi New Member

    thanx buddy! great work. keep it up .
     
  19. Coolash

    Coolash New Member

    d tabs r cool buddy !! keep posting :)
     
  20. ash_7186

    ash_7186 New Member

    fantabulous tabbing bro keep up the good work[:D]
     

Share This Page