Uska Hi Banana(1920-Evil Returns) Guitar Chords

Discussion in 'Hindi Guitar Tabs - Submit or Request' started by jimihndrx, Nov 20, 2012.

  1. jimihndrx

    jimihndrx Guitar Hero

    Song-Uska Hi Banana
    Film- 1920-Evil Returns
    Lyrics- Manoj Yadav
    Music-Chirantan Bhatt
    Singer- Arijit

    chords: (99% accurate)


    Verse:
    (Gbar)Meri (Cm)kismat ke har ek panne pe
    mere (Fm)jeete ji baad marne ke
    mere (Gbar)har ek kal.. Har ek (Cm)lamhe mein
    tu (A#)likh de (G#)mera (Gbar)usey

    (Gbar)har (Cm)kahani mein saare kisson mein
    dil ki (Fm)duniya ke sacche rishton mein
    zinda(Gbar)gani ke saare (Cm)hisson mey
    tu (A#)likh de (G#)mera (Gbar)usey

    Chorus:
    {(Gbar)aye (Cm)khuda aye (A#)khuda
    jab (G#)bana uska hi (Gbar)bana}-[2 times]

    Bridge:
    (Cm)uska hoon us (Fm)mein hoon usse hoon usi (Gm)ka rehne (Cm)de
    (Cm)main toh pyasa hoon hai (Fm)dariya wo zariya woh (Gm)jeene ka (Cm)Mere
    (Cm)Mujhe ghar de (Fm)gali de shehar de (Gm)usi ke naam (Cm)ke
    (Cm)kadam yeh chalen ya (Fm)ruken ab (Gm)usi ke vaas(Cm)tey

    (Cm)dil (A#)mujhe de (G#)agar dard (Gm)le uska (Cm)par
    uski(A#)ho woh (G#)haseen goonje (A#)jo mera (Gbar)ghar
    Rest of the song is same


    jimihndrx
     
    Last edited: Apr 17, 2017
  2. A for apple

    A for apple New Member

    thanks for the chords ..i was just trying the intro by my self and its seems to be played on Cm,Fm and G


    Cm Fm G
    |-----------| |---1--------| |---3--------|
    |--3--------| |-----3------| |-----5------|
    |---5-------|X2 |----------|X2 |------5--|X2
    |-------5---| |--------1---| |------4-----|
    |-----4-----| |------1-----| |-------------|
    |-----------| |-------------| |-------------|

    then

    |-------------------------1------1---------3--------3--------
    |--3---------3-------------3-------3--------5---------5------
    |---5----------5-------------------------------5-------------
    |-------5---------------------1---------------4--------------
    |-----4-----------4---------1---------1-------------------3--
    |---------------3--------------------1------------------3----

    enjoy....
     
  3. jimihndrx

    jimihndrx Guitar Hero

    U r welcome..yes you are right.. the intro is arpeggio in these chords.
     
  4. carlossantana

    carlossantana New Member

    99% version sounds good.......... thanks ......love the song !!!!
     
  5. jimihndrx

    jimihndrx Guitar Hero

    ur welcome dude..
     

Share This Page