Tu Tu hai wahi dil ne jise : Kishore Kumar and Asha Bhosle

Discussion in 'Hindi Guitar Tabs - Submit or Request' started by VisOrchestraGrp, May 8, 2008.

  1. VisOrchestraGrp

    VisOrchestraGrp New Member

    Req. By - Bhootmahal

    Singers - Asha Bhosle and Kishore Kumar

    NOTE - You can use slide , touching in place of p .


    HUMMING :-
    G |---------------5--4-2------------------2-------------------------------
    D |--2-4-5-4-2-------------5-4-------4----------------------------------
    A |--------------------------------5---------------------------------------


    D |------2-4-5-7--5-4-5-4-2---------------------------------------------
    A |--5---------------------------------------------------------------------

    ( In Remix verson D |--4-2-4-2-4-2---------- is used after previous line . )


    ......Tu.....tu.......hai....wahi....dil........ne..jise.......apna......kaha
    G |--------------------------5----4-2----------------------------------4----
    D |--2-----4-5----4-----2----------------5----4--------2-4-2--------------
    A |-------------------------------------------------5---------------5--------


    ......Tu........hai....jahan....main....hoon......wahan
    G |--2-----------------------------------------------2-----------------------
    D |-----5----4-----5-2------4-5-----4----------2---------------------------


    ......Ab.....to....ye....jeena....tere....binn....hai....sazaa
    G |-------------------------------------4--------2-----1-1------------------
    D |--5-----4----2----1---------1-4-----------------------------------------
    A |-----------------------2--------------------------------------------------


    ......Ho.....mil....jaayein....iss....tarah
    G |--2-----2-----2-2--------2-----4-5--------------------------------------


    ......Do.......laherein....jis.....tarah
    G |--4-2-----------------------2-4-----------------------------------------
    D |----------5-5---------5-------------------------------------------------


    ......Ho..........mil....jaayein....iss....tarah
    G |--5-4-2----2-----2-2--------2-----4-5-7-5-7-5-------------------------


    ......Do.......laherein....jis.....tarah
    G |--4-2-----------------------2-4-----------------------------------------
    D |----------5-5---------5-------------------------------------------------


    ......Phir.....ho.....na.........juda.....haan....ye.......vaada........raha
    G |------------------------------2----------------------------------------------
    D |--5-4----2-----4-5-4----2--------5-4------2-4-------2-4-5----4-2-------
    A |------------------------------------------------------5----------------------

    ****In Remix verson these lines are used after previous line ****

    ......Ye.....vada.....ye.....vada....ye....vada
    D |--4-----5-5------4-----5-5-----4-----5-5---------------------------------


    ......Ye.....vada.....ye.....vada....ye....vada
    G |--2-----4-4------2-----4-4-----2-----4-4---------------------------------


    ......Ye.....vada.....ye.....vada....ye....vada
    B |--3-----5-5------3-----5-5-----3-----5-5---------------------------------

    ******* This part is used In Remix verson only *******


    STANZA :-

    ......Main.....aawaaz......hoon....to...........tu...hai....geet....mera
    B |--------------5-5-5----3-------(3p5)-----------------3---------------------
    G |--4-------4--------------------------------2----2--------2----(2p4)-4------


    ......Main.....aawaaz......hoon....to...........tu...hai....geet....mera
    B |--------------5-5-5----3-------(3p5)-----------------3---------------------
    G |--4-------4--------------------------------2----2--------2----(2p4)-4------


    ......Jahan.....se....nirala...........manmeet....mera
    B |-------5----5----5-3-(3p5)----------3-------------------------------------
    G |--4-4---------------------------2-2-----2----(2p4)4-----------------------
     
  2. avi.singh

    avi.singh 6 strings lover

    keep rokin.....
     
  3. bhootmahal

    bhootmahal New Member

    Thank you very much!! :)
     
  4. chandan7

    chandan7 New Member

    thanx, its appriceated.
    good work.
     
  5. anirbandeb

    anirbandeb New Member

  6. jimihndrx

    jimihndrx Guitar Hero

    Here are the correct chords:
    Code:
    Music- R.D. Burman
    Lyrics- Gulshan Bawra
    
    Chords-
    
    
    Intro-
    
    Em       C        D
    La la la la la la la la la
    
    D           Em
    La la la la la la
    
    
    
    Mukhra:
    
    Em           C            D         G
    Tu tu hain wahin dil ne jise apna kaha
    
              Em           D
    tu hain jaha main hu waha
    
               B              B7     E
    ab toh yeh jeena tere bin hain saza
    
       F                      G
    Oo mil jaaye iss tarah do lehre jis tarah
    
       F                      G
    Oo mil jaaye iss tarah do lehre jis tarah
    
         Em      D         D       Em
    phir ho na juda ha yeh waada raha
    
    
    
    Interlude 1-
    
    Mandolin + Vocals-  Em  C  D  G  Em  D  D  Em
    
    
    
    Antra:
    
    Em          D  Em               Em
    Main aawaaz hu toh tu hain geet mera
    
    Keys-  Dbm  Eb  B  B
    Strings- Em-Em7b5/D-A7/Db-Em/B
    
    
    Em          D  Em               Em
    Main aawaaz hu toh tu hain geet mera
    
    Em         D  Em         Em
    jahan se nira la manmeet mera
    
    F                      G
    mil jaaye iss tarah do lehre jis tarah
    
       F                      G
    Oo mil jaaye iss tarah do lehre jis tarah
    
         Em      D         D       Em
    phir ho na juda ha yeh waada raha
    
    
    tu tu hai wahi part repeat
    
    
    rest is same

    jimihndrx
     
    Last edited: Jul 23, 2022
  7. Priusand

    Priusand Member

    Thanks!
     
  8. jimihndrx

    jimihndrx Guitar Hero

    You're welcome @Priusand
     
  9. KixFlirty

    KixFlirty Member

    This is good, thanks so much.
     
  10. jimihndrx

    jimihndrx Guitar Hero

    You're welcome @KixFlirty
     

Share This Page