Tu Tevha Tashi - Marathi Song

Discussion in 'Hindi Guitar Tabs - Submit or Request' started by Nayan, Apr 2, 2005.

  1. Nayan

    Nayan .:Humblebee Jumble:.

    Tu Tevha Tashi - Marathi Song with MP3 Audio

    Another Marathi Song Tu Tevha Tashi by none other than - Pt. Hrydaynath Mangeskar

    Some one had asked for it sometime back...

    Song : Tu Tevha Tashi
    Artist : Pt. Hrydatnath Mangeskar

    C--------------------G--------------------
    Tuuuuuu tevha tashi, Tuuuuuuu tevha tashi
    -Dm-------------- -Am-----C--------
    tuuuuu baharanchya bahunchi, tuuuuu
    Em------------------Am------------------
    Tu aila radhaaaaaaaa, tu pailaaaaa sandhya (dont the the correct lyrics here)
    Dm--------Am-----C
    Chafekaliiiiiii premachi
    C--------------------G--------------------
    Tuuuuuu tevha tashi, Tuuuuuuu tevha tashi
    -Dm-------------- -Am-----C--------
    tuuuuu baharanchya bahunchi, tuuuuu
    G-----------Am-------------
    tu navi juni, tu kadhi kuni
    Dm-----------------Am------C
    something something dolyatli....

    And the rest would be the same...


    Dont ask me if I can play it along with the actual song... with all the improvisations by the Pt. I cant be asked, beyond me... but tried doing a simpler version and it sounded alright(that is what I think)...

    Criticisms/comments/appreciations are all welcome...

    http://80.6.174.134/music/tutevha.mp3
     
  2. DrSaurabh

    DrSaurabh Wh@+s Up D0C

    hmmm.nice effort...i had requested this song...........needs something mroe...
    rep for u
     
  3. Nayan

    Nayan .:Humblebee Jumble:.

    Cheers mate.... thanks for the reps... and yes I do believe there would be a lot that can be improved in here...

    I will try and see if I find anything that would make it better... or else someone out there who knows this song can help...
     
  4. Nayan

    Nayan .:Humblebee Jumble:.

    guys comments/corrections...
     
  5. DrSaurabh

    DrSaurabh Wh@+s Up D0C

    am tryin man......but aint gonna happen soon..my exams comin up....so fat chance....after 28th apr deffo..
     
  6. Nayan

    Nayan .:Humblebee Jumble:.

    All the best mate for u r exams... Drsaurabh.

    In the mean time others, who have got time can surely post though...
     
  7. Nayan

    Nayan .:Humblebee Jumble:.

    Guys,

    I have recorded a mp3 of this song.. check it out and let me know your comments...

    It is a classical song and it is definitely not the same as the original one... But this is how I enjoyed it on guitar...

    http://80.6.174.134/music/tutevha.mp3

    Comments/criticisms/appreciations please...
     
  8. madhura

    madhura pani poori yum yum ....

    nayan, link chalat naiyye .... dusri pathav, kiva dusarikade cpy kar .....
    khup chan gana aahe te ....
     
  9. Nayan

    Nayan .:Humblebee Jumble:.

    I think mala majha firewall configure karayla lagel...

    Give me sometime I will do that and let you know...
     
  10. aleric

    aleric New Member

    Marathi Tituka Melavava........Good.

    Nayan link suru zaali ka?
     
  11. Nayan

    Nayan .:Humblebee Jumble:.

    aleric/madhura and all,

    Can you try clicking the link it should work this time...

    lemme know if you still got problems accessing it...
     
  12. prasanna

    prasanna New Member

    hi nayan,
    i m also a maharashtrian.but unfortunately i ve stil not learnt how play the chords.i m instinctively playing them.i ve finished only upsrokes n downstrokes in my tutions.so i cant read the chords.please if u cud give mi the tabs.
    bfn
     
  13. Nayan

    Nayan .:Humblebee Jumble:.

    Prasanna,

    first of all, Me suddha, guitar beginnerach aahe...

    he khali dilele tabs try kar ani let me know kase aahet te...


    tuuuuuuuu tevha ta shi tuuuuuuuu tevha ta shi
    E----------------------------------|----------------------------------------
    B-----------10--10---------------- |-----------10/11--10--8--------------
    G-6/9--10-------------10---7------|-6/9--10-------------------9--10-----
    D-------------------------------10-|-----------------------------------------
    A--------------------------------- |-----------------------------------------
    E--------------------------------- |-----------------------------------------

    tu baharan chya bahunchiiiiiii
    E---------8---9---8----------------------------------------
    B-9-10--------------10-9-10-----8------------------------
    G----------------------------10----10-8/7-8------------
    D-----------------------------------------------------------
    A-----------------------------------------------------------
    E------------------------------------------------------------

    tuuuuuuuu tevha ta shi tuuuuuuuu tevha ta shi
    E----------------------------------|----------------------------------------
    B-----------10--10---------------- |-----------10/11--10--8--------------
    G-6/9--10-------------10---7------|-6/9--10-------------------9--10-----
    D-------------------------------10-|-----------------------------------------
    A--------------------------------- |-----------------------------------------
    E--------------------------------- |-----------------------------------------

    tu aila radhaaaaaaaa tu paila sandgya
    E-----7--8--10/12---10--8--7-----|----7--8h10--8--8-----------------
    B-8----------------------------8--|-8-----------------------------------
    G---------------------------------|-------------------------------------
    D---------------------------------|--------------------------------------
    A---------------------------------|--------------------------------------
    E---------------------------------|--------------------------------------


    cha fe kaliiiiiiiiii premachi
    E-----------------------------------------------
    B-7--8--10--11--10--8--7--8--------------------------
    G------------------------------7--10--7-------------
    D----------------------------------------9--10-----
    A---------------------------------------------------------
    E----------------------------------------------------------

    and repeat it...

    second stanza vegala aahe to me tab kela nahin... ani tisra parat samecha aahe...

    Let me know the feed back...

    Also guys comments on the chords ...
     
  14. Nayan

    Nayan .:Humblebee Jumble:.

    is the link working???

    feedback guys, expecting comments...
     
  15. madhura

    madhura pani poori yum yum ....

    hey,
    i haven't tried tabs yet... but yeah good try of chords.
    I think in second stanza chords are misplaced a little bit .... but may be thats just me... i'll try soon ....
    here are complete lyrics. ......

    tu teva tashi,
    tu teva ashi,
    tu baharachya bahunchi
    tu .....

    tu eail radha
    tu paila sandhya ( 2 )
    chaphekali premachi
    tu teva tashi
    tu teva ashi
    tu baharachya bahunchi
    tu .....

    tu navi juni ....
    tu kadhi kuni ,... ( 2 )
    khari ka ga dolyanchi
    tu teva tashi
    tu teva ashi
    tu baharanchya bahunchi
    tu.....

    tu hirvi kachchi
    tu goph ( ?? ) sachhi
    tu khatti mitthi othanchi ( 2 )
    tu teva tashi
    tu teva ashi
    tu baharanchya bahunchi
    tu......

    hridaynath mangeshkaranchi saglich gaani chan astat
     
  16. Nayan

    Nayan .:Humblebee Jumble:.

    Cool Lyrics... :beer: :nw:

    bilkul, hridaynath mangeshkaranchi sagalich gani fantabulous astat... ani ho thanks for the comments... do post what you think would be right...

    others too, please post what you think is right according to you... that will help in getting the song absolutely right...

    :rockon:
     
  17. light_of_erindi

    light_of_erindi New Member

    Nayan....I downloaded the mp3....It seems out of tune with the actual song.....
    The progression is kinda right but the scale is two frets higher i think.... if u want to match it with the actual audio....
    I tried to do that and came to the conclusion that u can play this on D , A ...kinda progression OR play the same chords with capo on 2nd fret OR tune ur guitar 2 frets higher.....:):)
    I'll try to post it in a file.
     
  18. Nayan

    Nayan .:Humblebee Jumble:.

    hey Light_of_erindi,

    Thanks for the feedback... :beer:

    yeah the scale is higher... but it becomes a bit of a hard work for me to sing the part "tu aila radha... " with the actual scale... so I chose this...

    hey go ahead and post the file... looking forward to it...

    :beer:
     
  19. victor_slash

    victor_slash New Member

    Good job!

    good job with the chords n hell i needed the lyrics too.

    me running after gaarva yet. am juss abt to get it. altho, i like the other version of the gaarwa song which is much slower and a great guitar tab.
    no other music ..

    it starts like :
    paus padun gelyawar man pagulyangad zaale (2)
    khistijachya watevarti panyawar rangat gele.

    thembanna sawarlelya tya gawatanchya kadancha,
    paus padun gelyawar me bhijlelya jhadancha

    paus padun gelyawar man thembannche , gaaranche,
    aais hi chakwuni alya tya dabkyatil poranche,

    modun manachi daare, eewli paula bharti,
    paus padun gelyawar ya olya rastyan warti,

    paus padun gelyawar me chandra chimb bhizlela (2)
    vijvuni chandnya saarya, vizlela, shaant nizlela.

    paus padun gelyawar man bhir bhirta paarwa,
    paus padun gelyawar manat garathdaar .......garwaa.


    and then the slow version of the song.

    it a great one ...

    ooh and happy new year people
     
  20. GANESH RANE

    GANESH RANE New Member

    hey gr8 work guys.come up with more marathi song chords.
     

Share This Page