TERI YAAD intro tabs

Discussion in 'Pakistani Guitar Tabs - Submit or Request' started by Beqarar, Oct 3, 2004.

  1. Beqarar

    Beqarar New Member

    Hello everyone,

    I have figured out intro tabs of teri yaad by Goher (corrections will be appreciated)

    e--4s9-9-9-5-5-7-5-4--4h5h4--2-0------------------7----------------
    B----------------------------------4--2-2-2-4-5----------------------
    G---------------------------------------------------------------------
    D---------------------------------------------------------------------
    A---------------------------------------------------------------------
    E---------------------------------------------------------------------
     
  2. qizilbash

    qizilbash New Member

    wowww congrats no need for corrections man u already didit rite keep it up
     
  3. humanflux

    humanflux New Member

    i appreciate your tab but i have a more acurate one.. ure's is one scale lower.. mine's even easier to play coz all notes are close.. it's easy finger movement.... and ahh i even have the chords.. play D G and C at some random order.. it just fits in.. i bet it's a sclae lower but spot it out fer ureself....

    the intro goes somewaay similar check it out

    e|7s12-12-12--------------------------------------------------------
    B|-----------13-13-15-13-12--12h13p12----------------------------15-
    G|-------------------------------------14-12-11-9--9-9-9-9-11-12----
    D|------------------------------------------------------------------
    A|------------------------------------------------------------------
    D|------------------------------------------------------------------
     
  4. hesham

    hesham New Member

    man can any one from u tell the chords of this song
     
  5. humanflux

    humanflux New Member

    i did dude. just am tooo lazy to tell u the order na.. the're Am G D C.. lol figure them out now....
     
  6. framed

    framed New Member

    exactly.

    its Am-G-D-C .

    keep playing them throughout the song (Y)
     
  7. Werdah

    Werdah New Member

    :)finally!:)

    This is great work man.. i've been waiting for this one. Excellent but i've made a few corrections...it sounds somewhat better to me. It's pretty much the same thing just changed the 6 to a 7 and took out the zero. 4:4 means play the 2nd 4 faster.

    E-4:4 slide 9:9--5--7--5--4--5--4P5-4--2-----------------7--4
    B-----------------------------------------4--2--4--4--5


    I don't have my guitar with me right now..so i can't tell u if its totally right..but let me know how u guyz think it sounds. :rockon:
     
  8. zain

    zain New Member

    yh me in da skool lab . .so cant wait to try
     
  9. rajujee

    rajujee New Member

    hello..
    it's nice beqarar ... but i want whole song tabs.. plzzzzzzzzzzzz
     
  10. badullah

    badullah Dark Inside

    please give the detailed chords with lyrics and shifts ... thanks
     
  11. badullah

    badullah Dark Inside

    as i asked ... detailed version please with lyrics and shifts and solos and stuff thankussssssss
     
  12. moadhia

    moadhia New Member

    is the detailed version on the forum ????
     
  13. ImR@|\|

    ImR@|\| GuiTar MaNiaC

    e--4s9-9-9-5-5-7-5-4--4/5/4--2-0------------------7----------------
    B----------------------------------4--2-2-2-4-5----------------------
    G---------------------------------------------------------------------
    D---------------------------------------------------------------------
    A---------------------------------------------------------------------
    E---------------------------------------------------------------------

    ItZ Slidin` not HammErin`...
     
  14. A4tech

    A4tech New Member

    guys y r u after the tabs the trains has cross the station so check the chords my firend submitted it already
     

Share This Page