Tabs Submission : Pyar hua ikrar hua hai

Discussion in 'Hindi Guitar Tabs - Submit or Request' started by amit82cse, Jun 24, 2005.

  1. amit82cse

    amit82cse Silent observeR

    Pyar Hua Iqraar Hua Hai
    ------------------------------------------
    ------------------------------------------
    ------------------------------------------
    --5--7-8-7-8-7--5--7-8-7-8-7--------------
    ------------------------------------------
    ------------------------------------------

    Pyan se phir kyun darta hai dil
    ------------------------------------------
    ------------------------------------------
    ------------------------------------------
    --5--7-8-7-5------------------------------
    --------------8--6-6--8-6-5---------------
    ------------------------------------------

    Kahta hai dil, rasta muskil
    ------------------------------------------
    ------------------------------------------
    --7-8-5-7--7-7-8-5-7----------------------
    ------------------------------------------
    ------------------------------------------
    ------------------------------------------

    Malun nahi hai kahan manzil
    ------------------------------------------
    ------------------------------------------
    --7p5-----------5------5-7----------------
    ------8-77-7--7---8--8--------------------
    ------------------------------------------
    ------------------------------------------
     
  2. infinite aaz

    infinite aaz New Member

    hi man very nice, u rules, could u plz tab tum he tu hamari manzil my love,
     
  3. amit82cse

    amit82cse Silent observeR

    from which movie...
     
  4. infinite aaz

    infinite aaz New Member

    i donot know, but it is often play on musc channels, it is infact remix with new video, with ablind man as hero, i know only this
     
  5. greenday

    greenday New Member

    chords would be nice...not a big deal to find th melody...but yeh thanks anyway :D
     
  6. Tabish

    Tabish New Member

    great work~~~ can you plz post the tabs of song "KABHI KABHI MERAY DIL MAIN KHIYAAL AATA HAI" sing by "mukesh' from film "kabhi kabhi"
     
  7. amit82cse

    amit82cse Silent observeR

Share This Page