Tabs for oo jane jana

Discussion in 'Hindi Guitar Tabs - Submit or Request' started by stupidshashank, Jun 28, 2007.

  1. stupidshashank

    stupidshashank New Member

    Hi guys I am new here. Please I need the guitar tabs for o o jane jena urgently. Note - not the chords but the tabs . Thx
     
  2. fishtank

    fishtank Member

    this is the riff played in the song
    wasn't sure you want this to be tabbed or the melody of the whole song
    if you want the whole song to be tabbed then i can do it


    E--------------------------------------------------------
    B--------------------------------------------------------
    G-------------9-7-9-5--5/7-7-------------------------4-4-4-4-4--------------
    D--5/7-7-7---------------------9-7-9-5/7-7\5--5-5----------------------------
    A--------------------------------------------------------
    E--------------------------------------------------------



    E--------------------------------------------------------
    B--------------------------------------------------------
    G-------------9-7-9-5-7-4-5-0-----------------------------------------
    D-5/7-7-7-------------------------------------------------------
    A--------------------------------------------------------
    E--------------------------------------------------------
     
  3. supaero

    supaero New Member

    plz do it, thank you.
     
  4. fishtank

    fishtank Member

    this is the film version of the song picturised on salman khan
    there is a guitar solo in between i have tabbed that too
    sorry if i haven't tabbed it right please post any correction if you find it.
    thanks

    i have tabbed it in such a way that the player play in lot of position in the fret board
    if you are beginner it will help you in playing solos and improve finger movement



    ---O o jaane jaana, dhoonde tujhe deewana
    ---O o jaane jaana, dhoonde tujhe deewana
    E--------------------------------------------------------
    B----------------------------------------------------
    G-5--5--4-2-4--5---7-7----------------------------------------
    D--------------------------9-7-9---------------------------------
    A-------------------------------------10/12--10------------------------
    E--------------------------------------------------------


    ---Sapnon mein roz aaye,----- aa zindagi mein aana
    ---Sapnon mein roz aaye,------aa zindagi mein aana (sanam)
    E--------------------------------------------------------
    B--------------------------------------------------------
    G-----------------------------7/9-9-5-7-5-7--4/5--------
    D----5-7-9-----9-9-7-9-9---------------------------(5-7-)-
    A--------------------------------------------------------
    E--------------------------------------------------------




    --Mera khwaab mere khayaalon ki rani,Kisi din banegi hamaari kahaani
    -Kisi khoobsurat pari jaisi hogi,Mujhe kya pata dilrooba kaisi hogi
    E--------------------------------------------------------
    B--------------------------------------------------------
    G----9-7-5-7-5--4---0-2--4-4/5----------------9-7-7----------4--2-2------
    D-5--------------------------------7---7-7--9-----------5-5-7------
    A--------------------------------------------------------
    E--------------------------------------------------------







    Ae meri bekhudi, yeh kasam maine li,Pyaar mein ek din meri jaan tujhe hai paana

    E---------------------------------------------------------------------
    B-5-5-7-7-5-7p5-3-3-3-5-5-3-5p3-1----0h1p0-----0--0h1p0-----0-1-3-5-3-5-3-5-3-------
    G----------------------------------------------------2-------------2-----------------------4/5\2-
    D-------------------------------------------------------------------------------
    A--------------------------------------------------------------------------
    E-------------------------------------------------------------------------









    this is the solo played in between with electric guitar
    E--------------------------------------------------------
    B-17^-15-13-12-13----------------------------------------
    G--------------------14--12-12-14^--release-14--12-12-------
    D--------------------------------------------------------
    A--------------------------------------------------------
    E--------------------------------------------------------



    E--------------------------------------------------------
    B--------------------------------12---------15---------12-------
    G---------12--------14--------------------------------------
    D-12h14-----12h14----12h14------12h14-----12h14----------
    A--------------------------------------------------------
    E--------------------------------------------------------





    E--------------------------------------------------------
    B--------------------------------------------------------
    G-16/17--16/17\16-14-12-12^bend-gradually------------------------------
    D--------------------------------------------------------
    A--------------------------------------------------------
    E--------------------------------------------------------
     
  5. juliustalent

    juliustalent New Member

Share This Page