Tabs for IN THE END by linkin park . not the chords

Discussion in 'English Guitar Tabs - Submit or Request' started by rudra_nirwan, Sep 23, 2007.

  1. rudra_nirwan

    rudra_nirwan New Member

    plz give me the tabs for IN THE END by linkin park . not the chords
    plz i need them
     
  2. aneri92

    aneri92 New Member

    hey dude just google it naa ull definately get them!!!
     
  3. rakib2030

    rakib2030 New Member

    intro: riff a ( piano )

    e-----------------------------------------------------------|
    b----0--0----------------------0--0------------------------|
    g----------0-------------0-----------0---------------------|
    d-2-----------4--4--4--4----2-----------4--4--4--4---------|
    a----------------------------------------------------------|
    d----------------------------------------------------------|
     
  4. DaRockrz

    DaRockrz New Member

    In The End

    Hey nebdy knows how to add the wind effects n brightness effect frm ne kinda processor
     
  5. sandeepm05

    sandeepm05 New Member

    dis is tab of in d end
    Intro clean.
    *harmonic.
    1-------------------------|
    2-------------------------|
    3-------------------------|
    4-----3-3-----------------|
    5-1-------4-3-3-3---3h4---|
    6-------------------------|

    Verse clean harmonics.
    1-------7*--------12*-----|
    2----7*--------7*---------|
    3-5*--------5*------------|
    4-------------------------|
    5-------------------------|
    6-------------------------|

    Verse 2 distorted harmonics.
    1-------7*--------(12)*---|
    2----7*--------7*---------|
    3-5*--------5*------------|
    4-------------------------|
    5-------------------------|
    6-------------------------|
    (12)*let ring just before
    the bridge.
    Verse 2 distorted.
    1----------------------------------------|
    2----------------------------------------|
    3----------------------------------------|
    4-6-6-6-6-6-4-4-4-4-4-4-4-4-4-4-2-2-2-2-2|
    5-6-6-6-6-6-4-4-4-4-4-4-4-4-4-4-2-2-2-2-2|
    6-6-6-6-6-6-2-2-2-2-2-4-4-4-4-4-2-2-2-2-2|

    Bridge\ending.clean.
    1------------------------|
    2------------------------|
    3------------------------|
    4---3-3------------------|
    5-1-----4-3-3-3---3h4----|
    6------------------------|
    strumed distorted.
    1------------------------------------------|
    2------------------------------------------|
    3------------------------------------------|
    4-6-6-6-6-6-4-4-4-4-4-4-4-4-4-4-2-2-2-2-(2)|
    5-6-6-6-6-6-4-4-4-4-4-4-4-4-4-4-2-2-2-2-(2)|
    6-6-6-6-6-6-2-2-2-2-2-4-4-4-4-4-2-2-2-2-(2)|
    Distorted harmonics.
    1-------7*---------(12*)-|
    2----7*---------7*-------|
    3-5*---------5*----------|
    4------------------------|
    5------------------------|
    6------------------------|
    (2) (12*) let these notes ring for the ending.
    Thats it's a pretty easy song it took me about
    15 min to figure it out have fun!!!!!!!!
     
  6. aswanth

    aswanth New Member

    ok nice...in the end...
     
  7. n3m3s1s

    n3m3s1s New Member

    Try this tab during the rap part man,quite easy too :)
    Eb|-11/18-14-13-14-11-| Repeat through whole song
     
  8. dish

    dish New Member

    thnksssssssss
     
  9. ultrabot90

    ultrabot90 Like fishes need bicycles

    How about...
    Code:
    e-----------------------------------------|
    b----0--0----------------------0--0-------|
    g----------0-------------0-----------0----|
    d-2-----------4--4--4--4----2-----------4-|
    a-------------5-------------3-----------5-|
    d-----------------------------------------|
    
    ...for the intro? Definitely sounds better, just thought about it.
     
  10. rockguru

    rockguru New Member

    hey try this one
    it sounds really good

    E--------------------------------------------------------
    B--------------------------------------------------------
    G----4-4-------------------------------------------------
    D--2-----5-4-4-4-4-5------------------------------------repeat
    A--------------------------------------------------------
    E--------------------------------------------------------
     

Share This Page