[tabs] Eto vellipoyindhi from Ninne Pelladutha

Discussion in 'Tamil Guitar Tabs - Submit or Request' started by twarak, Jul 16, 2005.

  1. twarak

    twarak New Member

    Hey guys,
    Tabs for Etovellipoyindhi manasu... Ninne peladutha..

    (Introduction)
    E------------------------------------
    B----------3------1----------------------
    G----0-3----3-0----2--------------------------
    D--0-------------------3-2-3-2-0-----------------
    A-----------------------------------
    E-----------------------------------



    (Pallavi)
    Eto Vellipoyindhi Manassu

    E------------------------------------
    B-----------------------------------
    G----0-3-2-0-2-------0-0-0--------------
    D-0--------------3-0--------------------
    A-----------------------------------
    E-----------------------------------

    Etu vellindho adhi neeku telusu
    E------------------------------------
    B-----------------------------------
    G----0-3-2-0-2-------------------
    D-0--------------3-0-1-1-1-----------------
    A-----------------------------------
    E-----------------------------------

    phh challa galli achukki thesi
    E------------------------------------
    B---------3/4-4----------4h6p4-4-----------
    G----0-3------------0-3--------------
    D-1--------------1-----------------
    A-----------------------------------
    E-----------------------------------


    Kabura eyya lva

    E------------------------------------
    B---4-4-4-4-3-3h4p3-3/1-------------------
    G--------------------------
    D----------------------------
    A-----------------------------------
    E-----------------------------------

    emiyindho.. ohoooo

    E------------------------------------
    B----------------------------
    G---2-----------------------
    D-----0--3h5-5-5h7p5/3/0------------------
    A-----------------------------------
    E-----------------------------------

    (Repeat pallavi and introduction,, you can use the intro as a fill)


    Charnam-1

    ESnehamo Kaavaalani

    E------------------------------------
    B----------------------------
    G---0-0-0-0--(0-2/3/2-0)----0-0-0-0--(0-2/3/2-0)----
    D------------------------------
    A-----------------------------------
    E-----------------------------------

    The small piece in ( ) is a fill that comes after esnehamo... it is not for lyrics..

    Innaalluga Teliyaledu
    E------------------------------------
    B----------------------------
    G--0-0-0-0-2-3-3/5-3p2------------------
    D---------------------------
    A-----------------------------------
    E-----------------------------------


    Icchenduke Manasundani
    E------------------------------------
    B----------------------------
    G---0-0-0-0--(0-2/3/2-0)----0-0-0-0--(0-2/3/2-0)----
    D------------------------------
    A-----------------------------------
    E-----------------------------------

    Naakevvaru Cheppaledu
    E------------------------------------
    B----------------------------
    G--0-0-0-0-2-3-3/5-3p2------------------
    D---------------------------
    A-----------------------------------
    E-----------------------------------

    Chelimi Chirunaama

    E------------------------------------
    B----------------------------
    G--2-5-9-7-5/7/5-2------------
    D---------------------------
    A-----------------------------------
    E-----------------------------------

    Telusugogane
    E------------------------------------
    B----------------------------
    G--2-5-9-7-5/7/5-2------------
    D---------------------------
    A-----------------------------------
    E-----------------------------------

    Rekkalochaayo Evito..
    E------------------------------------
    B----------------------------
    G--0h2-3-5-3-----------------0-------
    D---------------5h7-5p3-3-0-----5h7p5-3p0-
    A-----------------------------------
    E-----------------------------------


    cHARANAM-2

    Kalalannave Koluvundani Kanulundi Em Laabhamundi
    E Kadalika Kanipinchani Silalaanti Bratukendukandi
    Todu Okarunte Jeevitam Ento Vedukoutundi Antu..

    Let the love flow.. :rock:
    Navin
     
  2. golisoda

    golisoda Comfortably Numb

    Nice one... Was waiting for the intro for a long time. will play and get back with feed back. Till then reps to u.
     
  3. ahfoo

    ahfoo New Member

    waiting for this since long time....................
    thanx
     
  4. gumbals

    gumbals New Member

    I did an my own simple orchestration for this song put together in a few hours because original singer Rajesh had visited my city to give a performance and his organizers did not have the original track for this song .. so Rajesh used what I did.. if anyone wants it.. just email me.. I'll send the karaoke version of what I did..

    And by the way please do visit http://gumbals.homeip.net for some of our originals..

    Gumbals
     
  5. tipo

    tipo New Member

    thanx 4 the tabs
     
  6. suneel_zee

    suneel_zee New Member

    Send me -- Tabs for Etovellipoyindhi manasu... Ninne peladutha..

    Hi friends,

    I'm Suneel. I need Guitar tabs for the song of Etovellipoyindhi manasu... from the movie Ninne peladutha.. Please send me..

    Thanks&regards
    Suneel.G
     
  7. anand eldiablo

    anand eldiablo New Member

    Yeah,I'm gonna visit your site right now, but before that I requset you to send me your kind of orchestration for the song "eto vellipoyindi manasu" from the movie- "Ninne Pelladuta". waiting for your reply.....
     
  8. anand eldiablo

    anand eldiablo New Member

    hi gumbals, I cannot see your site on the net
     
  9. gumbals

    gumbals New Member

    sorry for the delay.. I stopped visiting here.. coz did not see much response.. but the new site is www.gumbalsband.com

    and let me know your email address so that I can mail the track.. Are you a singer?

    Nandu
     

Share This Page