Tabs: Call - Nishaan

Discussion in 'Pakistani Guitar Tabs - Submit or Request' started by iblees, Jan 19, 2004.

  1. iblees

    iblees New Member

    [CHORDS]

    C [x32010]
    Am7 [x02213]
    Am [x02210]
    Em7 [022003]
    G [320033]
    F [133211]


    [INTRO 2x]

    C Am7
    e ------------------------------------------3------------|
    B -----------1--------------------------1-----1----------|
    G ---------0---0---0------------------2---2-----2----2---|
    D -------2-------2-----2------------2--------------2-----|
    A ---3---------------------3----0------------------------|
    E -------------------------------------------------------|

    Em7 G
    e ----------------3------------------------3-------------|
    B -----------0------0---0--------------3-----3---3---0---|
    G ---------0---0------2---2p0--------0---0-----0---0-----|
    D -------2-------------------------0---------------------|
    A ---2---------------------------------------------------|
    E ------------------------------3------------------------|


    [STANZA 1 WITH INTRO]

    Am Em7 G C
    kuch nahi khayal hai

    Am Em7
    donon taraf kon hai

    G C
    mein bhi aur tum bhi nahi

    Am Em7 G C
    jaltey huey diye ko aanso chahiye

    Am7 Em7 G F
    iradon ko bhi zaban chahiye


    [CHORUS]

    G F
    gham fasley nahi

    G
    doorian simatti nahi

    C G
    rastey hoon ge agar

    Am F
    ye faasley kam na hoon

    C G
    apna aks bhi nahi

    Am F
    aur yehi hai zindagi


    [REPEAT INTRO]

    [STANZA 2 WITH INTRO]

    kuch nahi khayal hai
    donon taraf kon hai
    jism bhi aur jaan bhi nahi

    ragon key andheron ko insaaf chahiye
    ranjish-e-khoon ko bhi makaan chahiye


    [CHORUS 2]

    F5 G5 F5
    gham fasley nahi

    G5
    doorian simati nahi

    C5 G5
    rastey hoon ge agar

    A5 F5
    ye faasley kam na hoon

    C5 G5
    apna aks bhi nahi

    A5 F5
    aur yehi hai zindagi

    A5 B5 C5 F5 G5 A5 B5 C5 F5 G5
    oooo hannnnnnn oooooooooooo haannnn


    [NATURAL HARMONICS 2x]

    e --12--------------------------------------------------|
    B ------------------------------------------------------|
    G ------------------------12----------------------------|
    D --------------------------------------12--------------|
    A ------------5-----------------------------------------|
    E ------------------------------------------------------|

    e --12--------------------------------------------------|
    B ------------------------------------------------------|
    G ------------------------------------------------------|
    D -------------------------5-------------7--------------|
    A ------------5-----------------------------------------|
    E ------------------------------------------------------|

    [SOLO WITH NATURAL HARMONICS]

    e ------------------------------------------------------|
    B ------------------------------------------------------|
    G --/9---------------------/12-----------/5-------------|
    D -----------/7-----------------------------------------|
    A ------------------------------------------------------|
    E ------------------------------------------------------|

    e ------------------------------------------------------|
    B ------------------------------------------------------|
    G -5h7p5h7p5\4h5---------5h7p5h7p5\4-5--4h5p4-----------|
    D --------------------------------------------5---------|
    A ------------------------------------------------------|
    E ------------------------------------------------------|

    e ------------------------------------------------------|
    B ------------------------------------------------------|
    G --/9---------------------/12-----------2-4-5----------|
    D -----------/7-----------------------------------------|
    A ------------------------------------------------------|
    E ------------------------------------------------------|

    e ------------------------------------------------------|
    B ------------------------------------------------------|
    G -5h7p5h7p5\4h5--------/9-7---/12-9--12--12/14---------|
    D ------------------------------------------------------|
    A ------------------------------------------------------|
    E ------------------------------------------------------|


    [BRIDGE 2x]

    A5 F5 C5 G5
    saarey yahan wo raastey hein kahan ?

    A5 F5 C5 G5 C5
    dhondon kahan mein apna nishaan ?


    [OUTRO WITH FLANGE]

    C G
    rastey hoon ge agar

    Am F
    ye faasley kam na hoon

    C G
    apna aks bhi nahi

    Am F
    aur yehi hai zindagi

    check the website to d/l da song:
    www.thebandcall.com and Thumbs up to Flasher for the gr8 website
     
  2. NuageOutlaw

    NuageOutlaw New Member

    have been hearing alot about hese guys lately...:think:
     
  3. nadish

    nadish Active Member

    Hey iblees!
    Did u tabbed it ur self ;). If positive, then keep it up man & carry on with good work
     
  4. moadhia

    moadhia New Member

    dude intro doesnt sound ritee..
     
  5. ImR@|\|

    ImR@|\| GuiTar MaNiaC

    man i cant play the intro.. :( ....
     
  6. Geek

    Geek New Member

    I cannot agree that it doesn't sound right. It is as accurate as it gets, the harmonic notes, solo, stanza, powerchords..even the outro with flange. Let's say, perfect?
     
  7. Orange Guitar

    Orange Guitar IGT's ALLROUNDER

    Another intro is:

    e|-------------------------3-------------------0----------------------3-----------------|
    B|-----1-1------------1----1---1--1------0----0---0---0--------0----0--0-0--------------|
    G|----0-0-0------------2--------2--2------0---------0---0--------0-------0-0------------|
    D|---3---3-3-2-0---2---2----2---2-----2---2----2----2------------0---0--0-0-------------|
    A|--3--------------0-------------------2-----------------------2------------------------|
    E|------------------------------------------------------------3-------------------------|
     
  8. FahdUS

    FahdUS New Member

    Nice Work Man.
    But Intro of Orange Guitar is the one that sounds more like the Record.
     
  9. Orange Guitar

    Orange Guitar IGT's ALLROUNDER

    (I dont know that these chords r correct n' not sure abt ? chords)

    F G F
    Haaan faasley aaaa nahin
    G
    Dooriyan aan simat ti nahin
    Am G C F
    Raastey hon ge agar yeh faasley kam na hoon
    Am G C F
    Apna aks bhi nahin aur yehi hai zindagiiiii


    (After this he plays the intro while the vocals come)

    C F
    Haannnnn Faasley
    C F
    Dooriyan satati raheen
    Am G C F
    Raastey hon ge agar yeh faasley kam na hoon
    Am G C F
    Apna aks bhi nahin aur yehi hai zindagiiiii


    Am ? ? F
    Haaaeee hae hae haaaeeee
    Am ? ? F
    Haaannn han han haaannn

    (Lead Part will be coming soon)

    Am F C
    Faasley yahan aaan wo raastey hain kahan
    Am F C
    Dhondoon kahan aan main apna aan nishaan
    Am F C
    Faasley yahan aan wo raastey hain kahan
    Am F C F C
    Dhondoon kahan main apna aan nishaan aaan aan


    Am G C F
    Raastey hon ge agar yeh faasley kam na hoon
    Am G C F
    Apna aks bhi nahin aur yehi hai zidagiiii
     
  10. nadish

    nadish Active Member

    I'm 100 and 1% agree with geek. These tabs sounds like original song...
     
  11. Orange Guitar

    Orange Guitar IGT's ALLROUNDER

    That work is nice but the intro is not like the original 1.
     
  12. ImR@|\|

    ImR@|\| GuiTar MaNiaC

    yaar.. mujh say koi bhi nehi baj raha.. or may b i havent heard the song properly...
     
  13. Yousuf_guitar

    Yousuf_guitar New Member

    orange guitar's intro is close enough
     
  14. junoonist

    junoonist New Member

    Orange Guitar Chords are KooL !
     
  15. m_waleed86

    m_waleed86 KhaMosh GhuStAk

    yup....i liked orange intro....but iblees's chords were better than oranges chords
     

Share This Page