Download IGT Android App Download IGT Android App

"Sukhakarta Dukhaharta"

Discussion in 'Marathi Guitar Tabs - Submit or Request' started by sushpop, Feb 14, 2006.

Download IGT Android App Download IGT Android App
  1. sushpop

    sushpop New Member

    Download IGT Android App Can somebody post the tabs for Lord Ganesha Aarti "Sukhakarta Dukhaharta" ....

    Thanks in advance.....

    :)
     
    Download IGT Android App
  2. lodhra

    lodhra New Member

    Download IGT Android App Hi
    well if u can give me an mp3 link of the audio i can help. Chords would be done and i will try tab it to.
     
    Download IGT Android App
  3. dangenatural

    dangenatural New Member

    Download IGT Android App Sukhakarta

    Shree Ganesh Aarati

    This is MP3 link so that u can easily find the tabs...

    We are waiting for tabs...

    Thanks

     
    Download IGT Android App
  4. godblessme

    godblessme New Member

    Download IGT Android App Very Intersting request...

    Well, i never tried this..but cos of u i played aarti on guitar..its looks kool !!

    here are chords
    they r very simple

    Sukhakarta Dukhharta Varta vighnachi
    D---------------------------------------A---
    Nurvi Purvi prem Krupa Jayachi
    A------------------------------D---
    Sarwangi Sunder uti shendurachi
    D------------------------------------A---
    Kanthi Zalke mal muktafalachi
    A-------------------------------D---

    Njoy....
     
    Download IGT Android App
  5. godblessme

    godblessme New Member

    Download IGT Android App and here are the notes for the same..
    please note there are many versions of this aarti with small small changes..
    I m giving below the traditional version..

    Sukhakarta Dukhharta Varta vighnachi
    a----d--d--d---d--d--d--e--d--d--c#
    Nurvi Purvi prem Krupa Jayachi
    d--e--e-e-e--d-c#-c#-d-d-d
    Sarwangi Sunder uti shendurachi
    a--d--d--d-d-d--d--e--d--d--c#
    Kanthi Zalke mal mukta falachi
    d--e--e-e-e--d-c#-c#-d-d-d

    Jai dev jai dev ---


    also try this : little bit hard for beginners but sounds good..

    Sukhakarta Dukhharta Varta vighnachi
    a----d--d--d---d--d--d--e--d--d--c#
    Nurvi Purvi prem Kruuupa Jayachi
    d--e-f#-g-f#-e-e-f#-e- d-d-d-***---(Changes done here)
    Sarwangi Sunder uti shendurachi
    a--d--d--d-d-d--d--e--d--d--c#
    Kanthi Zalke maal muukta falachi--jai dev jaidev
    d--e--f#-g-f#-e- e-f#-e- d-e-f#-e-f#-e-d-d-d


    Njoy...

    Jaidev jai dev jai mangal murti..

    d--e--e-e-e--d-c#-c#-d-d-d

    Jai dev jai dev ---
     
    Download IGT Android App
  6. - Pravin -

    - Pravin - New Member

    Download IGT Android App Try this. I tried to tab the for the song which was provided by you....

    Sukhakarta Dukhharta Varta vighnachi, Ho Varta vighnachi
    E 99--7--------77------------------------------------------
    B --------10-------10---8---8--10------8--10---8--10------8--10-
    G ----------------------------------10-----------------10----

    Nurvi Purvi prem Krupa Jayachi
    E -----------7h9-7----7--9-----7--------------------------------
    B ----8--10----------------10-----10----------------------------
    G -9------------------------------------------------------

    Sarwangi Sunder uti shendurachi
    E 99--7--------77------------------------------------------
    B --------10-------10---8---8--10------8--10---8--10------8--10-
    G ----------------------------------10-----------------10----

    Kanthi Zalke mal mukta falachi
    E -----------7h9-7----7--9-----7--------------------------------
    B ----8--10----------------10-----10----------------------------
    G -9------------------------------------------------------

    Hope you liked it.....
     
    Download IGT Android App
  7. - Pravin -

    - Pravin - New Member

    Download IGT Android App
  8. dangenatural

    dangenatural New Member

    Download IGT Android App Thanks!!!!!








    Thanks Pravin for providing this tabs..............
     
    Download IGT Android App
  9. - Pravin -

    - Pravin - New Member

    Download IGT Android App
    You are most welcome......
     
    Download IGT Android App
Download IGT Android App

Share This Page

Download IGT Android App Download IGT Android App