Submitted- TE AMO - Guitar TABS + Chords

Discussion in 'Hindi Guitar Tabs - Submit or Request' started by alaba, Apr 29, 2011.

  1. alaba

    alaba New Member

    Hey Guys ,

    These are the tabs for the song :

    Intro Solo :
    e------9----7-------9----6-------9-------------9----6
    b-77----7-----77----7------77----7-9---77----7--

    Kisi Ko Sapna Lagey Tu, Kisi Ko Behti Hawaa
    e-6-7-6-4-------------4----6-7-6-4-----------------
    b-----------7--7-6-7-------------------7--767--4---
    Repeat

    Kisi Ko Bas Baaton Mein, Kare Pal Mein Yahaan Wahaan
    e-99-99--797---4-6-76--7-9-6-4--------------------------------------------------------

    Te Amo Me Te Amo
    Tu Chhaanv Hai, Tu Dhoop Hai
    Te Amo Me Te Amo
    Tere Hazaron Roop Hai
    b--------------------------------------------9--11-11--99--11-11--9-7-6-77--66--77- X2

    Repeat Twice

    Koi Samjha Nahin, Jo Bhi Hai Bas Khoob Hai
    Falling So Crazy In Love
    b-9-11-12-12-11--7--12-12-11-7--77--99-----14-14-14-14-14-14




    The chords I used are

    D - Bm- G(Barre) - A (barre)

    And for line Te amo me Te amo Tu chau hai tu Doop hai :
    ----------- G(open) -----------Em--------------------

    Koi Samjha Nai jo bhi hai Bas Khoob hai
    Am------------C------------D---------






    Please Check the Complete VIDEO Lesson for TE AMO :

    http://www.youtube.com/watch?v=ByzGVBS7xto




    Thanks !!

    Would love to hear from you!

    Anjaneai
     
  2. subhralp

    subhralp New Member

    A B C#m Am
     
  3. monika9

    monika9 New Member

    nice tabs ... thanx!!
     
  4. Super-Admin

    Super-Admin Administrator Staff Member

    Nice work .. +1 rep for you !
     
  5. debmalya

    debmalya New Member

    Hey try the intro this way ... not sure if t is gonna suit your tabs scale though ....

    G--4--4------4-----
    B----------------5---
    E----------2---------

    G--4--4------4-----
    B----------------2---
    E----------2--------

    And btw ... awesome work dude !!!
     
  6. koyal

    koyal New Member

    tabs are really good/......... nice work.........
     
  7. alaba

    alaba New Member

    @ All

    Thanks ... And Thank you Super-Admin .. :)
     
  8. dhaneshmane

    dhaneshmane New Member

    thankso lot works nice
     
  9. abhishekmalyala

    abhishekmalyala New Member

    Nice effort...
    I played it in a different way... because i am a beginner i use a lot of free strings.
    I have played the song in D major scale using the notes D, E, F#,G,A,B,C#
    Here it is....

    .....Kisi Ko Sapna Lagey Tu, ....Kisi Ko Behti Hawaa
    E>----3-3----2-0----------------0----------3-3----2-0------------------------------
    B>------------------3---2-3-------------------------------3---2-3-2-0--------------
    G>-2---------------------------------------2---------------------------------

    .....Kisi Ko Bas Baaton Mein, Kare Pal Mein Yahaan Wahaan
    E>-7-7-7-7-7-----5-7-5-------------0-2-3-2-------------3-5-2-0-------------------
    B>-------------------------------------------------------------------------------------------
    G>-------------------------------------------------------------------------------------------

    .....Te Amo Me Te Amo, Tu Chhaanv Hai, Tu Dhoop Hai
    E>-0--2-2----0-0-----2-2-----0------------------------------------------------------------------------
    B>-----------------------------------3-2-3-3------------2-2--3-3-------------------------------------
    G>-------------------------------------------------------------------------------------------

    .....Koi Samjha Nahin, Jo Bhi Hai Bas Khoob Hai
    E>-0-2-3-3-2-0---------0-2-3-3-2-0---------------------------------------------------
    B>----------------------------------------------0-2-2---------------------------------------
    G>------------------------------------------------------3-------------------------------------
    ....Falling so crazy in love...
    E>-5-5--3-3--2-2--0-------------------------------------------------------------------------------------------
    B>-----------------------------------------------------------------------------------------------
    G>-------------------------------------------------------------------------------------------

    Repeat for te amo....

    Please do play and let me know your views.

    Regards,
    Abhay.
     

Share This Page