SUB:kal ho na ho tabs

Discussion in 'Hindi Guitar Tabs - Submit or Request' started by rohit, Sep 20, 2006.

  1. rohit

    rohit New Member

    i searched the tabs did not see it pasted anywhere so.........
    these are the tabs of kal ho naa ho .hope you will find it usefull

    har ghaadi...............roop zindagi
    -------------------0------------------------------
    --1--0-1-0-1-0-1----3-1-0---0---0----------------
    -----------------------------2---2-------------------
    -----------------------------------------------------
    -----------------------------------------------------
    -----------------------------------------------------

    chav hai kahi........................dhoop zindagi
    -------------------0-----------------------------
    --1--0-1-0-1-0-1----3-1-0---0---0------------
    -----------------------------2---2--------------
    -------------------------------------------------
    -------------------------------------------------
    -------------------------------------------------

    har pal yaha jee bhar jiyo
    --------------------------
    ------1-------------------
    --0-2---2------0-2-0------
    ------------3--------------
    --------------------------
    --------------------------

    jo hai sama khnh
    ------------------------
    ------1------------------
    --0-2---2------3-2-0----
    ------------3------------
    -------------------------
    ------------------------

    palkon ke leke saayein
    -----------------------
    --0-1-3----------------
    --------0-0-------0----
    ------------3-2-3------
    -----------------------
    -----------------------

    pas koi jo aaye
    -----------------------
    --0-1-3----------------
    --------0-0-------2----
    ------------3-2-3------
    -----------------------
    -----------------------

    lakh sambhalo paagal dil ko (here the tabs do not go according to the words. play it slow)
    ------1-0----------------1-0-----------
    --0-1-----3--310----0-1-----3--310---
    ---------------------------------------
    ---------------------------------------
    ---------------------------------------
    ---------------------------------------

    dil dhadke hi jaaye
    ------1-3------------------------------
    --0-1-----3--0----0-1-----------------
    ---------------2-----------------------
    ---------------------------------------
    ---------------------------------------
    ---------------------------------------

    then again start from haar pal yaha.
    there is a music piece in song which i could not figure out so if anyone knows it pls paste.
    pls reply.
     
  2. jozko

    jozko Banned

    what abt this thread http://www.indianguitartabs.com/showthread.php?t=730 i see tabs of this song there. Or is this a different song? Good practice to search extensively and if threads are already available, post to that thread.

    Rohit, use code tag around tabs when posting to maintain text alignment, rgds
     
  3. rohit

    rohit New Member

    i saw that thread .the title was chords of kal ho na ho and the tabs are on 2nd page did not see the 2nd page.they are not full tabs as well.
    the tabs which i have given are for the full song except the music peice.
    i am pasting it on that page also.
     
  4. jozko

    jozko Banned

    good to know u r posting complete tabs, rohit. And pasting there possibly gives more hits. Don't forget to put the 'code' tags around tabs. they sometimes get misaligned
     
  5. Morbid_Angel

    Morbid_Angel Sid the sloth

    @rohit
    hell man ure not sposed to post it again. This thread is good enuff for many hits. we ppl here read what we want. Dont pick old threads and post things like this.

    pce.
     
  6. rohit

    rohit New Member

    hmm ok .now how can i delete this thread.
    i thought the tabs weren't posted hence i did it and these tabs are good almost perfect.
    but sorry for this.
    sorry for the misallingnments would put the code tabs next time if i post some tabs
     
  7. jozko

    jozko Banned

    I think needs help of a Mod
    think u can still apply code tags. click corresponding edit option and make changes
     
  8. sid.chem.iit

    sid.chem.iit New Member

    Plz give the chords????????
     
  9. chatty_arko

    chatty_arko New Member

    chords ne1
     

Share This Page