SUB: Chords of Teri Yaadein(Piya by IMIK) 4m hindi serial Love Story

Discussion in 'Pakistani Guitar Tabs - Submit or Request' started by rockord, Jul 8, 2007.

  1. rockord

    rockord New Member

    Here r the chords.. this is my 1st post.. so plz suggestions and criticisim is welcome..

    G--3-5-5-4-3-3
    Em-3-3-3-4-5-3
    C--3-3-5-5-5-3
    D--5-5-7-7-7-5

    G--------------Em-----------C--------D-------
    Teri yaadein, mulakaatein, wo raatein aur baatein
    G---------------Em-----------C---------D-----
    Teri saansein, wo baahein, ab mujhko yaad aaye
    G--------------Em----------------
    Tere bina mera jiya, sataayein kyun
    C-------------------D------------------G
    piya Yaadon ne teri mujhpe, ye jaadu kiya re

    This is pretty much the rythem 4 the entire song..
    hope its allright..i'll try to tab the entire song..
     
  2. paranoid13rohan

    paranoid13rohan .: iNDiaN iDioT 3.0 :.

    sorry. but i differ from u rockord.

    i think the entire song is on this progression -

    | G - G6/B - Gsus4 - A7sus4 |

    G6/B = {x 2 2 0 0 3}
    Gsus4 = {3 3 5 5 3 3}
    A7sus4 = {x 0 0 2 3 3}
     
  3. kl12

    kl12 (Ghost Note)

    I didn't listen this love story version.
    the original version chords playing is some thing like that

    e-----0--------0---------
    b-----0--------0---------
    g------------9-----------
    d----------9-------------
    a--7-----7---------------
    e------------------------

    e-----0--------0---------
    b-----0--------0---------
    g------------6-----------
    d----------6-------------
    a--4-----4---------------
    e------------------------

    e-----0--------0---------
    b-----0--------0---------
    g------------2-----------
    d----------2-------------
    a--0-----0---------------
    e------------------------

    e-----0--------0---------
    b-----0--------0---------
    g------------4-----------
    d----------4-------------
    a--2-----2---------------
    e------------------------

    E,C#m,A,B Progression.
    search for the better version..i think its present on IGT.
    regards.
     
  4. sugat

    sugat New Member

    hi

    hey hi i really like ur work.. but can u made it whole song for me plzzzzzzz
     
  5. sugat

    sugat New Member

    hi

    hey hi i like ur work.... can u do whole song for me plzzzzzzz
     
  6. karan_kc

    karan_kc New Member

    hi u r accurate dude... Can u figure out the complete song. I really need the original chords but didn't find any whare except in your post... so, could u plz plz plz plz post the reply.
    here is the link to this song http://www.youtube.com/watch?v=XFwkRZbYD4E&feature=related
     
  7. deb.strawberry

    deb.strawberry New Member

    thanks a lot guys i was searching for the tabs of this song
     
  8. ricky123456

    ricky123456 New Member

    I think The Right Chords are

    Hey MAn Right Chords Goes With The Original Piya - IMIK (Unplugged) Version is
    F#m - 233222
    D#m - 222342
    B - 223332
    C# - 446664

    F#m - D#m - B - C#

    I Think The Original Chords PAttern is this U CAn Match It By PLaying Along A song..
     

Share This Page