Stuffs u can play on ur electric+Audio

Discussion in 'Guitar Lessons, Tutorials & Tips' started by .:SpY_GaMe:., Dec 4, 2006.

  1. .:SpY_GaMe:.

    .:SpY_GaMe:. New Member

    i recently bought a book with stuffs u can play on an electric

    adding the audio files also

    its kind of a tutorial one but am skipping part of the tutorials :p:


    THERE R LOADS OF STUFFS WILL POST THEM ONE AT A TIME IN THE SAME THREAD

    HOPE IT HELPS SOME ......

    reps n improvements r welcomed!!




    first


    FOUnDATION





    E minor

    EX1
    Code:
    E---------------------------------------
    B----------------------------------------
    G-----------5---7--5--------------------
    D---5--7---------------7---5---7-------------
    A---------------------------------------------
    E--------------------------------------------

    EX2
    Code:
    E---------------------------------------
    B----------------------------------------
    G---------------------------------------------
    D-----------5---7--5--------------------
    A---5--7---------------7---5---7-------------
    E---------------------------------------------


    EX3
    Code:
    E---------------------------------------
    B----------------------------------------
    G---------------------------------------------
    D--------------------------------------
    A---------3---5---3--------------------------
    E--3--5---------------5---3---5--------------------


    EX4

    Code:
    E---------------------------------------
    B----------------------------------------
    G---------------------------------------------
    D---------5--7-5--------------------------
    A--5--7-----------7-5-7------------------------
    E---------------------------------------------


    Code:
    E---------------------------------------
    B----------------------------------------
    G---------------------------------------------
    D-5-----------5--7--5----------------------
    A----7--5--7------------7---------------------
    E---------------------------------------------

    Code:
    E---------------------------------------
    B----------------------------------------
    G---------5--7--7--9-----
    D--5--7----------------------------------
    A-----------------------------------------
    E--------------------------



    EX5


    Code:
    E---------------------------------------
    B----------------------------------------
    G---------------------------------------------
    D--------------------------------------
    A------3-5-3-5-7-5------------------------------
    E-3s5--------------------------------------------
    

    Code:
    E---------------------------------------
    B----------------------------------------
    G-------------------5--7--5--7--7s5--
    D--------5--7-5-7--------------------------
    A--7--7-------------------------------------
    E---------------------------------------------
    

    EX6


    Code:
    E---------------------------------------
    B----------------------------------------
    G---------------------------------------------
    D--------------------------------------
    A-----------------3------------------------
    E--5------5-3-5------5--3------
    
    Code:
    E---------------------------------------
    B----------------------------------------
    G---------------------------------------------
    D--------------------------------------
    A--------------3---------------------------
    E-5----5-3-5------5--3-----
    
    Code:
    E---------------------------------------
    B----------------------------------------
    G---------------------5--7--7s9--------------------
    D-----------------5-7--------------------
    A-----3--5--5s7--------------------------------
    E--5-------------------------------------------
    
    the exercise six has no audio..... sorry abt that

    AUDIO
    http://rapidshare.com/files/5970036/14_CD_Track_14.mp3.html
     
    born2tab likes this.
  2. d_ist_urb_ed

    d_ist_urb_ed Genuflect b*tches!

    Why did you post this in the Beginner's Q and A forum?
     
  3. .:SpY_GaMe:.

    .:SpY_GaMe:. New Member

    :oops:
    shit i missed the guitar lessons and tablature discussion forum while browsing n posted that here instead....

    THREAD MOVED!:cool:























































    thnx neo..
     
  4. .:SpY_GaMe:.

    .:SpY_GaMe:. New Member

    A DORIAN

    EXERCISE 1
    Code:
    E--------------------------------------
    B--------------------5--8-----------7--------
    G--4------4--5--7--------------------------
    D----5--7--------------------------------
    A---------------------------------------
    E------------------------------------------


    EXERCISE 2
    Code:
    E--------------------------------------
    B------------------5-----------7------------
    G-5---------5--7------8S7--5-----5-------------
    D----7-4-7---------------------------------
    A------------------------------------------7--
    E------------------------------------------
    EXERCISE 3
    Code:
    E--------------------------------------
    B-------5----------------------------------
    G-7full-----8s7-5-------------------------------
    D-----------------7p4---------------------
    A----------------------7---6--5-3------7-----
    E------------------------------------5------
    Code:
    E--------------------------------------
    B-----------------------------------------
    G----5----------------------------------
    D--------7------------------------------
    A---------------------------------------
    E------------------------------------------



    EXERCISE 4


    Code:
    E--14P12H14---12------------------------------------------------
    B-------------------13-------13------13------------------------
    G------------------------14------14-----14P12-----------12--
    D-----------------------------------------------14-------
    A------------------------------------------------------
    E------------------------------------------
    AUDIO

    CD1-31
     
  5. geniusoid

    geniusoid Acoustic Alchemist

    Hope u have a premium RS account, else the mp3 links might become invalid if not used for a month.... i`d suggest tht u u/l them somewhere on some server...
     
  6. .:SpY_GaMe:.

    .:SpY_GaMe:. New Member

    i'll upload them else where and edit the link
     
  7. geniusoid

    geniusoid Acoustic Alchemist

    Cool....if u`ve urself recorded those audio files, let's get them on a server where i can link to the mp3s directly....maybe i cud make a standalone streaming player for u for those songs to distribute ;)
     
  8. .:SpY_GaMe:.

    .:SpY_GaMe:. New Member

  9. .:SpY_GaMe:.

    .:SpY_GaMe:. New Member

    C mixo -lydian;)


    EXERCISE 1
    Code:
    E----------------------------------------
    B--------8---
    G--10full---10-9---------------------------
    D----------------10--8----------------10------
    A-----------------------10--8--7-------------------------
    E----------------------------------8-----------------------
    EXERCISE 2

    Code:
    E--------------------------
    B--6-5---------------------------
    G-------5-3----5-3------3----6-------
    D------------5------5------3---3-5-----
    A------------------------------
    E-------------------------------

    EXERCISE 3

    Code:
    E---------------------------------------8
    B------------------------------------8-----11full-
    G--9H10P9-------------7--------9--
    D---------------8-10-----8--10--
    A-----------10-------------------
    E-------------------------------

    EXERCISE 4

    Code:
    E--------------------------
    B-------------5p3-----------3----6p5---
    G------5--3------------3h5----3-------5--
    D----5--------------5----------------
    A--3----------------------------
    E-------------------------------





    cd1-33
    AUDIO
     

Share This Page