Song: Ami Ek Jajabor Artist: Dr. Bhupen Hazarika

Discussion in 'Bengali Guitar Tabs - Submit or Request' started by lovvv, Oct 10, 2010.

  1. lovvv

    lovvv New Member

    Strum Pattern:
    Option 1: Fast strumming - |DDD|
    (Explanation - 4 beats per meter; the stroke that is marked with a (') is played and muted (D' here); the beats in brackets are divided into subunits of equal duration as noted).

    Option 2: Play the chords where directed as single down strokes.
    Between the meter chord changes occur and give this song its distinctive flavour.

    Guitar Tabs:
    Verse 1:
    E------------------------------------
    A------------------------------------
    D------------------------------------
    G---------4------------4-------------
    B-5-75-577--5-7h5-5774-57-57-7-------
    e--4---------4--------------4-45-457-

    E------------------------------------
    A------------------------------------
    D------------------------------------
    G------------------4-----------------
    B-----7---754--5-75-577--5-7h5-------
    e-4755-754------4--------------------

    Verse 2: (Basic pattern; repeat 1+1)
    E------------------------------------
    A------------------------------------
    D------------------------------------
    G------------------------------------
    B--------------------(10)7-----------
    e-45h7-777-777777-797-----5555-------

    E------------------------------------
    A------------------------------------
    D------------------------------------
    G------------------------------------
    B------------------------------------
    e-5555-575797-7975-75-744------------





    Guitar Chords:
    Verse 1:
    E C#m A E
    Ami ek jajabor, ami ek jajabor,
    C#m E A
    Prithibi amake apon korechay,
    B E
    Bhulaychi nijer ghor....
    E C#m A E
    Ami ek jajabor, Ami ek jajabor.


    Interlude:
    |E |C#m |A |C#m |
    |E |C#m |A |C#m |


    Verse 2:
    C#m E
    Ami Gongar theke Mississippi hoye,
    A
    Volga-r mukh dekhechi;
    A
    Ottowa-r theke Austria hoye,
    B E
    Paris-er dhulo mekhechi.
    C#m E
    Ami Elora-r the rong niye duray,
    A
    Chicago shohoray diyechi;
    A
    Galiber sher taskander
    B E
    Minar-ay boshay shunechi.
    C#m E
    Mark Twain-er shomadhite boshay,
    A G#m
    Gorky'r kotha bolaychi;
    G#m A
    Baray baray ami pother tanayi,
    B E
    Poth ke koraychi ghor.
    E A B E
    Tai ami jajabor, tai ami jajabor.



    Interlude:
    |E |C#m |A |C#m |
    |E |C#m |A |C#m |


    Verse 2:
    G#m A
    Bohu jajabor, lokkho bihin,
    C#m
    Amar royechay pon,
    G#m A
    Ronger khoni jekhane dekhechi,
    B E
    Rangiye niyechi mon.
    C#m E
    Ami dekhechi anek gogonchumbhi,
    A
    Ottalikar shari;
    A
    Tar chayatai dekhechi anek,
    B E
    Grihohin noro-nari.
    C#m E
    Ami dekhechi anek Golap, Bokul,
    A
    Phute achay ghoray ghoray.
    A
    Abar dekhechi na phota phuler kolira,
    B E
    Jhoray gechay onadoray.
    C#m E
    Premhin bhalobasha, deshay deshay,
    G#m A
    Bhengechay shukher ghor,
    G#m A
    Pother manush apon hoyechay,
    B E
    Apon hoyechay por.
    E A B E
    Tai ami jajabor, ami ek jajabor.
    E A B E
    Ami ek jajabor, aAmi ek jajabor,
    E A B E
    Ami ek jajabor, ami ek jajabor.


    Original Scale: E major


    GUITAR IS A WEAPOEN
     
  2. ArindamSarkar

    ArindamSarkar New Member

  3. ArindamSarkar

    ArindamSarkar New Member

    lovvv, you could have just posted the link. Copying was unnecessary. We could have all avoided this problem. Its easy for you to copy in 5 minutes what took me 2 hours each to post.

    Do you think that's right?

    To know why its more problematic than this, read this post:

    http://www.indianguitartabs.com/showthread.php?t=46031
     

Share This Page