sona diya-intro

Discussion in 'Bengali Guitar Tabs - Submit or Request' started by billyboy, Jul 4, 2005.

  1. billyboy

    billyboy New Member

    onekdin bade abar billyboy...
    bangla' bander sobkota gaaneri intro ek dhoroner..........
    pray sobgulor intro te ekta slide based intro ache.........
    sona diyar intro ta puro 100% amaar kaaj.....tai accuracy-o 100% se bishoy sondeho nei
    tai onnokono site-e eta post korle amar naamta ontoto rekho....



    Sona diya<bangla>
    _______________
    INTRO

    timing thik rakhar jonyo gaanta sune tulo....
    ami oboshyo nijer toiri ekta riff pathachii....
    asha kori kaje lagbe...

    Riff-1

    -----9------9---------7--------7----------2--------2----------5-------5----
    -------7-------7---------5--------5---------0----------0--------3--------3
    ------------------------------------------------------------------------------
    ----------------------------------------------------------------------------
    --9-----------------7-------------------2------------------5----------------
    ----------9------------------7------------------2------------------5--------


    Riff-2

    ------2------2-------2-------2--------2-------2-----------------
    --------2------2-------2-------2---------2-------2--------------
    -----------------------------------------------------------------
    -----------------------------------------------------------------
    ----------------------------------02--------2--------2----------
    ---2-------2-------0-------0-----------------------------0------




    Ganer mukhra-e riff 2 ta use korte hobe...tobe ektu poriborton hobe....

    any suggestion, comments.......just reply..







    :rock:
     
  2. LEFTY_GUITARIST

    LEFTY_GUITARIST -= M®. §öU†|-|ÞäW =-

    :shock:

    good to c u back..........:grin:

    riff gulo bapok.............

    barre dhore bajaccho??????:think:
     

Share This Page