Soloing exercise!!

Discussion in 'Beginner's Q&A Forum' started by Anchit7, May 4, 2010.

  1. Anchit7

    Anchit7 New Member

    Hi guys....i am posting a soloing exercise....its a bit advance......it improves finger speed....it really worked for me......it helped me play well known solos of songs like"neele neele ambar pe"..hope you enjoy it....

    e:------------------------------5-6-8p6-5---6-5------5------------------------|
    b:-----------------------5-6-8-------------8------8-6---8-6-5--8-6-5---------|
    g:----------------5-6-7-------------------------------------------------7-------|
    d:---------5-6-7----------------------------------------------------------------|contd. below..
    a:--5-6-7-----------------------------------------------------------------------|
    e:-------------------------------------------------------------------------------|

    e:------------------------------------------------------------------------------------|
    b:--6-5-------5----------------------------------------------------------------------|
    g:-------7-5----7-5------7-5--------5-----------------------------------------------|
    d:-------------------8---------8-7-------8-7-5---8-7-5----7-5--------5-------------|
    a:--------------------------------------------------------8-------8-7------8-7-5~---|
    e:-------------------------------------------------------------------------------------|

    its got to be played on a 4/4 speed...i.e.approx 2 notes per second......so practice!!
    All comments or compliments welcome....
    Cheers!!!
    Anchit......
     

Share This Page