solo: californication / red hot chili peppers

Discussion in 'English Guitar Tabs - Submit or Request' started by cool92, Nov 26, 2007.

  1. cool92

    cool92 New Member

    the solo iz something like dis::::
    e------9---------------------------------------------------------------
    B---10-------------------------------------------------11--------------
    G-------^11-------11-11-11-11--9----------------9-------9------------
    D----------------------------------11---11-9-11------------11---------
    A----------------------------------------------------------------------
    E----------------------------------------------------------------------


    e------9---12--14---------9---12--14s-16p-----17-16-14-12---14-12---
    B---10-----------------10-------------------------------------------14
    G----------------------------------------------------------------------
    D----------------------------------------------------------------------
    A----------------------------------------------------------------------
    E----------------------------------------------------------------------


    e-----12------------------------------12----14-16-14---12----12---
    B---14--14--14^---14h--14h--14h-14p--14----------------14-------
    G-------------------------------------------------------------------
    D-------------------------------------------------------------------
    A-------------------------------------------------------------------
    E-------------------------------------------------------------------


    e----------------12----------------------------------------------------
    B---14-12-----------15-14---------------------------------------------
    G----------14--------------13------------------------------------------
    D-----------------------------------------------------------------------
    A-----------------------------------------------------------------------
    E-----------------------------------------------------------------------


    that's how it goes. if u like it let me know..
     
  2. sandeepm05

    sandeepm05 New Member

    hey buddy try dis............

    E----------------9----------------------------------9--------------------------------------------
    B---------10--------------------------------10--------------------------------------------------
    G--------------------------11b--11---------------------11b-----11--11--11--11---9-----------
    D----------------------------------------------------------------------------------------11--11-
    A------------------------------------------------------------------------------------------------
    E------------------------------------------------------------------------------------------------

    E----------------------------------------------------------9------12----14---------9--12-------
    B---------------------9----------------------------10-------------------------10---------------
    G----------------9-----------11---9-------------------------------------------------------------
    D-----9--11---------------------------------11--------------------------------------------------
    A------------------------------------------------------------------------------------------------
    E------------------------------------------------------------------------------------------------

    E-----14b----14------17----16---14---------------14------------------------------------------
    B------------------------------------------17---------------17-------14-----17---14-14-14-14
    G------------------------------------------------------------------------------------------------
    D------------------------------------------------------------------------------------------------
    A------------------------------------------------------------------------------------------------
    E------------------------------------------------------------------------------------------------

    E--------------------14b-----12------------12-----------------------------12-------------------
    B----17-----14-----------------------14-------------14-----12-----------------15---14--------
    G--------------------------------------------------------------------14------------------14-----
    D------------------------------------------------------------------------------------------------
    A------------------------------------------------------------------------------------------------
     
  3. dish

    dish New Member

    thnksss dude ll try both
     

Share This Page