singum 2 -hanshika theme by lion

Discussion in 'Tamil Guitar Tabs - Submit or Request' started by sathish lion, Nov 2, 2013.

  1. sathish lion

    sathish lion New Member

    e------------2---3------2
    b----2--3-----------------


    e------------2---3------2
    b----2--3-----------------

    then sow ...


    e------------2---3------2
    b----2--3-----------------


    nw watching .. on sun tv


    by
    lion
     
  2. sathish lion

    sathish lion New Member

    2ndline sme changes

    e---------------------------2---3------2
    b---2---3--------2--3-----------------
     
  3. sathish lion

    sathish lion New Member

    e------------2---3------2
    b----2--3-----------------



    e---------------------------2---3------2
    b---2---3--------2--3-----------------
     
    Last edited: Nov 3, 2013
  4. amalts0101

    amalts0101 New Member

    first line ok second line crct aka mattingathu...na seekaram solli kudunga
     
  5. amalts0101

    amalts0101 New Member

    e------------2---3------2
    b----2--3-----------------
    puri yavi lai

    aporom ?
     
  6. sathish lion

    sathish lion New Member

    tmrw i will put crectly
     
  7. amalts0101

    amalts0101 New Member

    ok na am wai8in :D
     
  8. sathish lion

    sathish lion New Member

    puriavialai ithu
    e. 2 3 2. 2
    b 2 3". 2

    e. 2. 3 2. 2
    b 2 3. 2

    e. 2 3 5
    b 2 33. ( repeat )


    tiz oly theme ... not song ...
     
  9. sathish lion

    sathish lion New Member

    puriavialai ithu
    e-----2--3-2--2--
    b-2-3--------- -2


    e-----2--3-2--2--
    b-2-3--------- -2




    e-------2-3-- 5
    b--2-33--------. (2 repeat )


    try this .. .
     
  10. amalts0101

    amalts0101 New Member

    i was havin my exams so i wasn't here i will try and post reply soon
     
  11. sathish lion

    sathish lion New Member

    okok .. boss ... all the best for u r xams. ..
     

Share This Page