Sayoneee tabs - Junooon

Discussion in 'Pakistani Guitar Tabs - Submit or Request' started by J_a_L, Jan 1, 2005.

  1. J_a_L

    J_a_L New Member

    Intro
    e ----10------10------10------10------10------10------10------10----
    B --10--10--10--10--10--10--10--10--11--11--11--11--10--10--10--10--
    G ------------------------------------------------------------------
    D ------------------------------------------------------------------
    A ------------------------------------------------------------------
    E ------------------------------------------------------------------

    Dm
    e ----13------13------9------9-----------8-------5---------5--------
    B --10--10--10--10--8---8--8---8-------6-------3-----------6--------
    G -----------------------------------7-------5------5------7--------
    D ----------------------------------------------------7----7--------
    A ---------------------------------------------------------5--------
    E ---------------------------------------------------------x--------

    Repeat

    Pre-Vocal Chords
    Dm Bb, Dm Bb, Dm Bb, Dm A


    (F)Sayonee (C) (Dm) Sayonee


    (Dm)Chen ik (Bb)pal (Dm)Nahin

    (Dm)Chen ik (Bb)pal (Dm)Nahin

    (Dm)Chen ik (Bb)pal (Dm)Nahin

    (Dm)Aur koi (F)hal (C)Nahin (Dm)

    Sayonee Sayonee

    Chen ik pal Nahin. Aur koi hal Nahin
    Sayonee, Sayonee.


    Kon (Dm)morae (Bb)muhar (Dm)

    Kon (Dm)morae (F)(C)muhar (Dm)

    Kon (Dm)morae (Bb)muhar(Dm)(Bb)

    Koi (F)Sanval (C)nahin (Dm)

    Chen ik pal nahin. Aur koi hal nahin
    Sayonee, Sayonee

    Kia Bashar ki Bisat, Kia Bashar ki Bisat
    Aaj he kal nahin
    Sayonee, Sayonee

    Chen ik pal nahin. Aur koi hal nahin
    Sayonee, Sayonee

    Chor Meri Khata, Chor Meri Khata
    Tu, to pagal nahin
    Sayonee Sayonee

    Chen ik pal nahin. Aur koi hal nahin
    Sayonee, Sayonee
     
  2. rizaaj

    rizaaj Forum Leader

    these chords and tabs have been posted b4.. i think so...

    plz dont copy paste
     
  3. jayswami

    jayswami Blue J

    I dnt think they r correct either.
    I think i have mentioned on IGT before that the acoustic rhythm in that song is very simplistic beacuse all the hard work is done by the bass guitarist while the acoustic plays just a Dm Riff most of the time..
    for eg if the actually prog looks like

    Sayooni ieee iieeeeee
    BbM7------C------------Dm

    the acoustic guitar keeps playing the Dm riff during that whole line while the bass players does a Bb C Dm run.

    the antara sounds jazzy because of the bass run.. while the acoustic guitar again plays simple chords and mostly plain Dm..

    check out for the strumming pattern and bass

    http://vorlon.cwru.edu/~jayen/J/sayoni.mp3

    I have replayed the aoustic and the bass.

    If you were to arrange the song for a single aocustic guitar without bass supprt, then you would obviously play it differently. I might post such an arrangement in the future. but sayonni without bass just doesnt sound right.

    Jay
     
  4. Quadrophenia

    Quadrophenia New Member

    hey there jay could u give your version of sayonne tabbed out..would really appreciate it..i've checked out your other tabs as well i think theyre top ...really appreciate it if u cud put up the solo and the chords
    thanx
     
  5. jayswami

    jayswami Blue J

    i have never learnt the lead for the song.. i seldom learn guitar leads.. in case u havent noticed and i hardly give tab for guitar leads all due to a very simple reason : as i cant play most leads :p:
    i think i have seen a chord progression for the song on IGT which is accurate, the only thing is that , that person had combined the bass + acoustic gtr parts and resolved the chords.
    I can post what the acoustic 12 string plays in the song.. but u will find that without the bass guitar backing up, it will be boring and evem sound wrong to some ears.

    otherwise i will have to jam with the song and come up witha single guitar arrangement which sounds good.. might do that in the future..

    Jay
     
  6. Quadrophenia

    Quadrophenia New Member

    alright dude.do us a fav and check out this lead for sayonnee

    it ggoes as follows and no its not done by me ..:p

    ============

    repeat Fig-1
    ------------

    --------------------------------------11------------------------------
    ------10^11-11v10p8-11-10~~---8-10-11----11-11-10~~-------------------
    ----------------------------------------------------------------------
    ----------------------------------------------------------------------
    ----------------------------------------------------------------------
    ----------------------------------------------------------------------

    -----12^13--12-10-----------------------------------------------------
    ------------------13^15~~-13-11-10------------------------------------
    -----------------------------------12-10~~--10-9----------------------
    -------------------------------------------------12~~-----------------
    ----------------------------------------------------------------------
    ----------------------------------------------------------------------

    --17^18-18v17p15-18^20-18~~--20-18----18-17----17-15----15-13----12-10
    -----------------------------------18-------17-------15-------13------
    ----------------------------------------------------------------------
    ----------------------------------------------------------------------
    ----------------------------------------------------------------------
    ----------------------------------------------------------------------

    ---------------------------------5-----------5----------5-------------
    -10---8^10~~~8^10v8p6--8^10~~------8^10v8p6---8^10v8p6---8^10v8p6-----
    ----------------------------------------------------------------------
    ----------------------------------------------------------------------
    ----------------------------------------------------------------------
    ----------------------------------------------------------------------

    ----------------------------------------------------------------------
    -15----------------13-------------------------------------------------
    -14-14^15v14p12----12-------------------------------------------------
    ----------------14--------3-0--5-3-0-3-0-5-3-0-3-0-0------------------
    ----------------------------------------------------------------------
    ----------------------------------------------------------------------

    -----------------------------------------15-17^19v17-17--17^19--------
    -15^17~~-17v15p12-17^19~~~--17----15-17----------------15-----15-15-15
    -------------------------------14-------------------------------------
    ----------------------------------------------------------------------
    ----------------------------------------------------------------------
    ----------------------------------------------------------------------


    -8-x-10-10-10-10-10--8-x-7-7-7-7-7------------------------------------
    -6-x-8--8--8--8--8---6-x-5-5-5-5-5------------------------------------
    ----------------------------------------------------------------------
    ----------------------------------------------------------------------
    ----------------------------------------------------------------------
    ---------------------------------------------------------------------
     
  7. BIG_EVIL

    BIG_EVIL Guitaring Machine

    kooooooooool
     
  8. nadish

    nadish Active Member

    The link that jayswami specified does not exist. Plz tell some other link to that song.
     
  9. shak

    shak Harrr!

    ^^PM jay......
     
  10. jayswami

    jayswami Blue J

    check out the live rendition of seattle band shruti in the idnian gig forum...

    i play the aoucstic guitar parts in it including the intro. i couldnt find the correct intro tab for the song anywhere online. i will post it here sometime.
     
  11. Liquid

    Liquid New Member

    man can we get the solo plz plz plz...
     

Share This Page