SANGBIGNA PAKHIKUL-chords N' Tabs

Discussion in 'Bengali Guitar Tabs - Submit or Request' started by billyboy, Nov 22, 2005.

  1. billyboy

    billyboy New Member

    :dance:
    Darun gaan.....anekdin age keu ekta req: kore chilo
    tokhon gaanta bhalo kore sunini...
    ekhon sune bujhchi agei namano uchit chilo...

    Gaan tay FINGERPICKING er proyojon tobe emni strokeo bhalo lage


    ........G..........................Dm(alway play Dm like this)
    -----3-------------------1--3--1--0---1-------------------
    -------3---0--------------3--3--3---3--3--------------------------
    ---0-----0-------------2------------------------------------
    -0--------------------0-----------------------------------
    -----------------------------------------------------
    --------------------------------------------------





    G-----------------------------------Dm
    Runway jure pore ache sudhu keu nei sunnota
    G-----------------------------Dm
    ashashe tokhon thomkiye ache megh
    F-------------C--------------
    bedona bidhur radarer oloshota
    A-----------------------Dm
    kinchit sukhi pakhider sombeg


    In the Fillin part Just play The Chords Dm-C-Bb-A(x2)
    with this riff-

    -1-0-1-3-0h1p0------------------
    ----------------3---1------------
    ------------------3---3-2------x2
    -----------------------------
    -------------------------------
    --------------------------------



    It actually played by two guitars But it can be played with One..
    Check the audio clip (SP2-billyboy)for help


    A--------------------------Dm-----
    Ekahne biman bondore bohu kal
    A--------------------------G
    thameni ashash bihari biman jaan
    A--------------------------Dm
    ekhane sekhane aghachar jonjal
    A----------------G
    sunno baubito gotibeg
    C--------------------------Dm
    emon chobite kishori manay bhalo
    C----------------A------------Dm
    Froke mokh gnuje kande chul elomelo



    :beer:
    the last part is same....tobe gaanta boro Hotath sesh hoye jai..
    ami gaantar seshe prothom part-ta abar geye seshe..and it sounds better..

    any comments..suggestions..just reply..
    and i dont think any correction is needed...

    Bye4now :rock:
     

    Attached Files:

  2. deb7sk

    deb7sk New Member

    thanks but information requested

    Billyboy....I have not heard this song but your post gave me the impression that I should listen to this song. Could you please tell me whose song is it and also the name of the album? Thanks and once again, kudos for your good work.
     
  3. Black Web

    Black Web New Member

    Sowar Onekdin Por Post Korli Dekhchi....................
    Bari Abar Dec. Jabo......totodine Bal Cher
     
  4. Saptashaw

    Saptashaw PRO Tabber

    "Shondhan" bole ekta band taader upcoming album-e ei gaan-ta geyeche. Bepok geyeche.
     

Share This Page