Saawariya - Title Song - Intro Tab

Discussion in 'Hindi Guitar Tabs - Submit or Request' started by herculesksp, Feb 11, 2008.

  1. herculesksp

    herculesksp New Member

    I've been looking on this site for long for the Saawariya tab/chords but never found it. Finally now with a broken bridge I decided to play my Guitar's Swan Song. I still haven't learnt to chord a song, but at least I can tab it to good effect. Please try out and give me your feedback.


    Intro, 4 times + Chords
    E-------------------------------------------------------------
    B-------------------------------------------------------------
    G-----------7-6-----------7-6-----------7-6-----------7-6----
    D------6-7-----------6-7-----------6-7-----------6-7---------
    A--7h9----7------7h9----7------7h9----7------7h9----7-------
    E-----------0-------------0--------------0-------------0------


    ( Chords + First Chorus )


    Solo
    E------------------------------------------------------------------
    B------------------------------------------------------------------
    G--------6h7-9--7\6--------------6/7-7--9h11-99-9h11-9-6/7-99---
    D-----6h7----------7-8/9-------67---------------------------------
    A--7h9-------------------9---99-----------------------------------
    E------------------------------------------------------------------

    First Stanza


    You have to play to the correct timings by ear. Listen hard and you will get the pattern. You can hammer or slide up depending on your choice. To me it sounded the best when played in this way.

    PS: Its almost 11pm now and I think I gotta sleep. Will tab the rest of the song if there are any other solos tomorrow. Meanwhile, I do hope someone will post some chords.

    --
    http://www.prashu.com
    http://blogs.prashu.com
    http://photos.prashu.com
    http://www.youtube.com/user/herculesksp
     
  2. petrifiedpimp

    petrifiedpimp New Member

    search properly.
    da tabs & chords hav been posted long before.
     
  3. petrifiedpimp

    petrifiedpimp New Member

    ........................................
     
  4. herculesksp

    herculesksp New Member

    hmmm... now that you mentioned, in the related posts of mine, I saw some threads. I tried so hard to get this earlier. I don't quite approve of the search feature in this PHP-based forum applications.

    Anyway, I checked the other threads and it looks like my tabs are pretty different. For a first tab submission(hell, a first tab, ever) from me, how about some feedback/opinions?
     
  5. petrifiedpimp

    petrifiedpimp New Member

    da intro ain't rite.
    da lead's nt goin nywere eithr.
     
  6. petrifiedpimp

    petrifiedpimp New Member

    me just a beginner.
    so dnt count n my wrds!
     
  7. nitin2go

    nitin2go New Member

    this is hard, cant it be made easier
     
  8. nitin2go

    nitin2go New Member

    i also agree with pimp, it aint going anywhere, it sounds lame, no offense though
     

Share This Page