ROCK ON !! tabs with recording..

Discussion in 'Hindi Guitar Tabs - Submit or Request' started by ozone, Jul 10, 2008.

  1. ozone

    ozone New Member

    Hey guys... Ive tried out the new song ROCk ON... beautiful song really.

    Ive only tabbed and recorded the first part of the song. Ive attached a recording for your reference (Excuse my voice.. ;) )

    http://soundclick.com/share?songid=6706474

    http://www.muziboo.com/music/3073-ROCK-ON

    Now i dont claim this is the original used, this is just how i play it. So be subtle in your responses... :)

    Tabs are as follows....


    ------INTRO------

    E---x-x----x------x-x--x--x---
    B---x-x----x------x-x--x--x---
    G---x-x----x------x-x--x--7---
    D---7-7--7s8-pm-x-x--5--7---
    A---7-7--7s8-pm-x-x--5--5---
    E---5-5--5s6-pm-x-x--3--x---

    Above riff played 8 times

    -NOTE- : play D5 and C5 on 5th string roots, A5 and G5 on 6th string roots.,, thats how ive played it.. listen to the recording n ul get a hold of it..... chords used are given at the bottom.


    A5-------------------------D5-------G5----
    Dil kya karta hai mera kya main bataaon
    A5----------------------------C5-------G5-----
    Tume yeh samjhoge shaayad main paagal hoon.

    Riff played 4 times.

    A5-------------------------D5-------G5----
    Dil kya karta hai mera kya main bataaon
    A5----------------------------C5-------G5-----
    Tume yeh samjhoge shaayad main paagal hoon.
    A5------------------------D5-------G5----
    Dil karta hai tv tower pe main chad jaoon
    A5-----------------------C5-------G5-----
    Chilla chilla ke main ye sabse keh doon.

    A5---------
    Rock ON
    ---------D5------G5----------
    Hai yeh waqt ka ishaara
    A5---------
    Rock On
    -----C5-------G5---------
    Harlamha Pukaa-ra
    A5--------
    Rock On
    ----------D5--------G5-----------
    Yuheen Dekhta hai kya tu
    A5-------
    Rock On
    -----C5-------------F5---------------------
    Zindagi milegi na dubaraaa........

    Riff played 4 times



    For those who dont know these chords... here they are...



    ---G5----A5---
    e|------------|
    B|------------|
    G|------------|
    D|---5----7---|
    A|---5----7---|
    E|---3----5---|(ROOT)




    ---- C5--D5---
    e|-----------|
    B|-----------|
    G|--5----7---|
    D|--5----7---|
    A|--3----5---|(ROOT)
    E|-----------|


    sorry i didnt have time for the entire song.... the same pattern repeats itslef except for 2 lines in between... Enjoy...
     
  2. satan_4_infinit

    satan_4_infinit New Member

    hey man..can identify the intro part clearly..good work there...am not sure about the verse n chorus part..coz...i havent heard the song full....

    damn me...how do i miss it's promo...
    neways...vill let ya know...how the chords work...
    am happy with the intro...
    do post ne changes that u make or come across...
     
  3. umangu

    umangu New Member

    Good work tabbing this so fast, but had-badi mein gadbad ho gai bhai!

    Try this instead

    E---x-x----x------x-x--x--x---
    B---x-x----x------x-x--x--x---
    G---x-x----x------x-x--x--5---
    D---7-7--7s8-pm-x-x--5--5---
    A---7-7--7s8-pm-x-x--5--3---
    E---5-5--5s6-pm-x-x--3--x---


    During the verse, you don't need to play chords

    And in the chorus, play the typical Ehsaan barre chords, with the bottom 2 strings open.

    The pattern is A G F#m F

    A---------
    Rock ON
    ---------G
    Hai yeh waqt ka ishaara
    F#m---------
    Rock On
    ------F
    Harlamha Pukaa-ra

    Tell me what you think! I might add in the little riffs as well. Nice and easy song.
     
  4. sayantan_guha

    sayantan_guha New Member

    Try this instead

    E---x-x----x------x-x--x--x---
    B---x-x----x------x-x--x--x---
    G---x-x----x------x-x--x--x---
    D---7-7--7s8-pm-x-x--5--x---
    A---7-7--7s8-pm-x-x--5--0---
    E---5-5--5s6-pm-x-x--3--0---
     
  5. paati

    paati New Member

    u guys have the chorus wrong. its A G D/F# .. guitars chords are A G D F, but bass run is A G F# F .for full song check the SEL forum
     
  6. kumar_barua

    kumar_barua New Member

    Hey patti whats SEL forum??
     
  7. paati

    paati New Member

  8. ozone

    ozone New Member

    @ satan thanks man...
    @ umangu thank u.. thats a nice suggestion.. will try out those chords too....
     
  9. sachin12

    sachin12 New Member

    hey man , iam a novice in this field
    idont understand following type of tabbing
    E---x-x----x------x-x--x--x---
    B---x-x----x------x-x--x--x---
    G---x-x----x------x-x--x--x---
    D---7-7--7s8-pm-x-x--5--x---
    A---7-7--7s8-pm-x-x--5--0---
    E---5-5--5s6-pm-x-x--3--0---

    can u please help me out,it would be an
    obligation!!!!
     
  10. ozone

    ozone New Member


    those are the finger positions with respect to the 3fingers u use to play the guit...


    s- stands for slide n pm- for palm mute....
     
  11. kennybhalekar

    kennybhalekar New Member

    guys anybody tabbed the solos of rock on ???
     
  12. Jarhead

    Jarhead New Member

    hey...this one was the best as it is the most accurate one...infact, precise...so try this instead everything else



    E---x-x----x------x-x--x--x---
    B---x-x----x------x-x--x--x---
    G---x-x----x------x-x--x--5---
    D---7-7--7s8-pm-x-x--5--5---
    A---7-7--7s8-pm-x-x--5--3---
    E---5-5--5s6-pm-x-x--3--x---
     

Share This Page