Req-Tabs of Alaap by Junoon !

Discussion in 'Pakistani Guitar Tabs - Submit or Request' started by devil, Jul 5, 2004.

  1. devil

    devil New Member

    Plz can anyone tab this tune !
     
  2. Quadrophenia

    Quadrophenia New Member

    i think this is what u're looking for...i'm not sure..i think this is it..the intro to saein and stuff..
    Author/Artist: Junoon
    Title: Saaein Solo, Fills, Intro
    Album: Azaadi
    Transcribed by: Sami Rahman
    Email: [SNIP]

    -|-------------------------------------------------------|--------------------
    -|-------------------------------------------------------|--------------------
    -|---7vv-7p6-------6h7-6b7---7vv-7p6------6h7p6----------|--------------------
    -|-----------8-7-8------------------8-7-8-------7b8--r7vv|--------------------
    -|-------------------------------------------------------|--------------------
    -|-------------------------------------------------------|--------------------
    vol drone as Riff starts

    -|---------------------------------------------------------------|------------
    -|-----------------------10b11-r10-8-----------------------------|------------
    -|-------6-6/7--7p6-7/10-------------10-9-10b12r10-9-7p6-9b10r9/7|------------
    -|-5h7h8---------------------------------------------------------|------------
    -|---------------------------------------------------------------|------------
    -|---------------------------------------------------------------|------------
    INTRO 0-0:55

    -|---------------------------|---------------------------------|--------------
    -|---------------------------|-15v-15p14----14---------14------|--------------
    -|-7v-7p6---6----6------6----|-----------15------14h15----15-14|--------------
    -|--------8-------7-7h8---8-7|---------------------------------|--------------
    -|---------------------------|---------------------------------|--------------
    -|---------------------------|---------------------------------|--------------
    2: 07

    -|-------------------------------------|-----------------------------15-17b18-
    -|--------------------8-10-11-10-10-8--|14b15-15p14-15/17-17p15-17/18---------
    -|6b7-7p6-7/9-9p7-9/10---------------10|--------------------------------------
    -|-------------------------------------|--------------------------------------
    -|-------------------------------------|--------------------------------------
    -|-------------------------------------|--------------------------------------
    3:00

    -|---------------------------------------------|------------------------------
    -|---------------------------------------------|------------------------------
    -|----------6/10-9p7h9v-9*7*9*10*9*7*9*10*9*7-7|------------------------------
    -|7h8-5-7-8------------------------------------|7h8-5h7---5-------------------
    -|---------------------------------------------|--------8---7h8-5h7-4h5p4-----
    -|---------------------------------------------|--------------------------6-5-
    3:49

    -|---------------------------------------------------------------|------------
    -|10*10*10*8*11*11*11*8*10*10*10*8*6*6*6-10*10*10*8*11*11*11*8*10|------------
    -|---------------------------------------------------------------|------------
    -|---------------------------------------------------------------|------------
    -|---------------------------------------------------------------|------------
    -|---------------------------------------------------------------|------------
    3:58

    -|17*17*17*15*18*18*18*15*17*17*17*15*13*13*13-17*17*17*15*18*18*18-15-17|----
    -|-----------------------------------------------------------------------|----
    -|-----------------------------------------------------------------------|----
    -|-----------------------------------------------------------------------|----
    -|-----------------------------------------------------------------------|----
    -|-----------------------------------------------------------------------|----


    -|17p15-17b18-17p15-------------------------15b17|----------------------------
    -|------------------18b20-18p17-18b20-18p17------|----------------------------
    -|-----------------------------------------------|----------------------------
    -|-----------------------------------------------|----------------------------
    -|-----------------------------------------------|----------------------------
    -|-----------------------------------------------|----------------------------
    4:06 REPEAT ONCE MORE

    -|------------------------------------17-15-18-15-17-131313-17-15-18-15-17b18-
    -|----------------------------------------------------------------------------
    -|----------------------------------------------------------------------------
    -|19-17-20-17-19-151515-19-17-20-17-19----------------------------------------
    -|----------------------------------------------------------------------------
    -|----------------------------------------------------------------------------
    4:18 After this Repeat 2:07 Riff with trill
     
  3. lord_neo

    lord_neo Guest

    Please do not use your email id here.
     

Share This Page