REQ : Rabbi + Tere bin sahnu soneya

Discussion in 'Hindi Guitar Tabs - Submit or Request' started by Nicky Boy, Mar 9, 2005.

  1. Nicky Boy

    Nicky Boy New Member

    Hi! Guys...
    New on this forum but not on Guitaring....
    Can anyone please post the tabs for Rabbi's "Tere bin sahnu soneya"
    This would be really appriciated.
    Catch ya around.......... :beer:
     
  2. rochakchauhan

    rochakchauhan New Member

    Hey dude...I already have posted them....check em out at http://www.indianguitartabs.com/showthread.php?t=6289&highlight=tere+bin+rabbi
    ....
    ne ways.....here ....i'll post em again :)
    Code:
    --------------------------------------------
    ------------------------3----4----3/1------
    -3--3/1--1/0----3---5----------------------
    --------------------------------------------
    --------------------------------------------
    --------------------------------------------
    
    Tere bin ... sanu sohnia
    
    
    --------------------------------------------
    1--4---1------------------------------------
    ----------1--1--3----5---3---3--------------
    --------------------------------------------
    --------------------------------------------
    --------------------------------------------
    Koi hor nahio labna            
    
    
    
    ------------------------------------------
    ----------------4---3-----3---1----------
    -3--3/1---1/0----------3-----------------
    ------------------------------------------
    ------------------------------------------
    ------------------------------------------
    
    Jo dave ruh nu sakun
    
    
    -------------------------------------------
    -1---4---1---------------------------------
    ------------1---1---3---5---3--3----------
    -------------------------------------------
    -------------------------------------------
    -------------------------------------------
    
    Chukke jo nakhra mera
    
    
    
    
    ##############
    
    -----3--3----1-1---------------------------
    -------------------3-3----4----------------
    -3------------------------------------------
    -------------------------------------------
    -------------------------------------------
    -------------------------------------------
    
    Ve main sare ghum ke vekheya
    
    -----3--3----1-1---------------------------
    -------------------3-3----4----------------
    -3------------------------------------------
    -------------------------------------------
    -------------------------------------------
    -------------------------------------------
    Amrika, Roos, Malayasia
    
    
    --------------------------------------------
    -4----4--3------3--1---1--1----------------
    --------------------------------------------
    --------------------------------------------
    --------------------------------------------
    --------------------------------------------
    Na kite vi koi farq se
    
    
    
    --------------------------------------------
    --------------------------------------------
    -1---1--3-----4----3----3---3----3---------
    --------------------------------------------
    --------------------------------------------
    --------------------------------------------
    Har kise di koi shart si                       x 2     
    
    REPEAT for the whole song
    
     
  3. yogeshkohli

    yogeshkohli New Member

    could u plz post the chords also
    yogi
     
  4. gollum

    gollum New Member

    I think it's a D-G-A progression all the way with a capo on the 1st fret.

    Cheers.
     

Share This Page