Req : Nishaan (Call)

Discussion in 'Pakistani Guitar Tabs - Submit or Request' started by moadhia, Jan 16, 2005.

  1. moadhia

    moadhia New Member

    has some1 tabbed it out .. an amazingg songg.. andd the intro too .. plzzz.. :D
     
  2. waheedkhatri

    waheedkhatri New Member

    Hey MOadhia i appreciate ur choice, i like this song too much, here it goes
    [CHORDS]

    C [x32010]
    Am7 [x02213]
    Am [x02210]
    Em7 [022003]
    G [320033]
    F [133211]


    [INTRO 2x]

    C Am7
    e ------------------------------------------3------------|
    B -----------1--------------------------1-----1----------|
    G ---------0---0---0------------------2---2-----2----2---|
    D -------2-------2-----2------------2--------------2-----|
    A ---3---------------------3----0------------------------|
    E -------------------------------------------------------|

    Em7 G
    e ----------------3------------------------3-------------|
    B -----------0------0---0--------------3-----3---3---0---|
    G ---------0---0------2---2p0--------0---0-----0---0-----|
    D -------2-------------------------0---------------------|
    A ---2---------------------------------------------------|
    E ------------------------------3------------------------|


    [STANZA 1 WITH INTRO]

    Am Em7 G C
    kuch nahi khayal hai

    Am Em7
    donon taraf kon hai

    G C
    mein bhi aur tum bhi nahi

    Am Em7 G C
    jaltey huey diye ko aanso chahiye

    Am7 Em7 G F
    iradon ko bhi zaban chahiye


    [CHORUS]

    G F
    gham fasley nahi

    G
    doorian simatti nahi

    C G
    rastey hoon ge agar

    Am F
    ye faasley kam na hoon

    C G
    apna aks bhi nahi

    Am F
    aur yehi hai zindagi


    [REPEAT INTRO]

    [STANZA 2 WITH INTRO]

    kuch nahi khayal hai
    donon taraf kon hai
    jism bhi aur jaan bhi nahi

    ragon key andheron ko insaaf chahiye
    ranjish-e-khoon ko bhi makaan chahiye


    [CHORUS 2]

    F5 G5 F5
    gham fasley nahi

    G5
    doorian simati nahi

    C5 G5
    rastey hoon ge agar

    A5 F5
    ye faasley kam na hoon

    C5 G5
    apna aks bhi nahi

    A5 F5
    aur yehi hai zindagi

    A5 B5 C5 F5 G5 A5 B5 C5 F5 G5
    oooo hannnnnnn oooooooooooo haannnn


    [NATURAL HARMONICS 2x]

    e --12--------------------------------------------------|
    B ------------------------------------------------------|
    G ------------------------12----------------------------|
    D --------------------------------------12--------------|
    A ------------5-----------------------------------------|
    E ------------------------------------------------------|

    e --12--------------------------------------------------|
    B ------------------------------------------------------|
    G ------------------------------------------------------|
    D -------------------------5-------------7--------------|
    A ------------5-----------------------------------------|
    E ------------------------------------------------------|

    [SOLO WITH NATURAL HARMONICS]

    e ------------------------------------------------------|
    B ------------------------------------------------------|
    G --/9---------------------/12-----------/5-------------|
    D -----------/7-----------------------------------------|
    A ------------------------------------------------------|
    E ------------------------------------------------------|

    e ------------------------------------------------------|
    B ------------------------------------------------------|
    G -5h7p5h7p5\4h5---------5h7p5h7p5\4-5--4h5p4-----------|
    D --------------------------------------------5---------|
    A ------------------------------------------------------|
    E ------------------------------------------------------|

    e ------------------------------------------------------|
    B ------------------------------------------------------|
    G --/9---------------------/12-----------2-4-5----------|
    D -----------/7-----------------------------------------|
    A ------------------------------------------------------|
    E ------------------------------------------------------|

    e ------------------------------------------------------|
    B ------------------------------------------------------|
    G -5h7p5h7p5\4h5--------/9-7---/12-9--12--12/14---------|
    D ------------------------------------------------------|
    A ------------------------------------------------------|
    E ------------------------------------------------------|


    [BRIDGE 2x]

    A5 F5 C5 G5
    saarey yahan wo raastey hein kahan ?

    A5 F5 C5 G5 C5
    dhondon kahan mein apna nishaan ?


    [OUTRO WITH FLANGE]

    C G
    rastey hoon ge agar

    Am F
    ye faasley kam na hoon

    C G
    apna aks bhi nahi

    Am F
    aur yehi hai zindagi

    P.S : it is not ma work, it was tabbed by : Zishan Haider
     
  3. moadhia

    moadhia New Member

    amazing dude.. .. thanks a million .. have u tabbed out Kash by Call :) ..
     
  4. nadish

    nadish Active Member

    Hey WaheedKhatri! U r damn right man I like this song toooooooo much. Infect its a very good song. Isn't it?????? But tell me from which Genre it belongs to??? Alternate Rock or Blues???????

    Tabs for Kash By The Band Call [Not Tabbed By Me]

    they have tuned down their guitar half a step,
    EbAbDbGbBbEb


    Code:


    and intro tabs for acoustic are... arpegios over these 2 positions

    Eb------0 ----x
    Bb-----0 ----0
    Gb-----6 ----9
    Db-----6 ----9
    Ab-----4 ----7
    Eb-----x and ---x

    like
    play this 4 times shift fingers 3 frets and repeat 4 times
    Eb----------------------------~~~ ------------------------------
    Bb-----------0------------0---~~~ ------0----------------0-------
    Gb-------6--------6-----------~~~ --9----------9---------------
    Db--------6---6-------6-------~~~ ----9---9---------9----------
    Ab----4---------4-----------~~~ -7----------7-----------------
    Eb-------------------------------------------------



    figure out the timing and groove by listening to the song.
    the trick here is to tune down the guitar half a step, or play thr song in E.
     

Share This Page