[Req] jungle jungle bat chali hai from mogali

Discussion in 'Hindi Guitar Tabs - Submit or Request' started by krishnan, Feb 11, 2005.

  1. krishnan

    krishnan New Member

    plz share tabs of

    jungle jungle bat chali hai pata chala hai chaddi pahen ke phool khila hai phool khila hai.

    from jungle book mogali :nw:
     
  2. Hardik

    Hardik .:.:.:BoRn TaLenT:.:.:.

    lolz.....i used to watch that when i was a little kid :p: :p:
    nice cartoon.....
    well this should get you started( i dont remeber the tune much but i think this is right :p: :p: )

    E-----------------------------------------
    B-----------------------------------------
    G-2-0-2-3-2-222--3-3-2-0----0-----------
    D--------------------------3---------------
    A------------------------------------------
    E-------------------------------------------

    jungle jungle baat chali hai.....

    E-----------------------------------------
    B----------------------1-------------------
    G-0-0-------0-0-----0---0-----------------------
    D-----2-2-3-----2-2-------3-3-3-------------------
    A------------------------------------------
    E-------------------------------------------

    are chhadi pehenke.....


    :p: :p: :beer:
     

Share This Page