Req: Jalsa - My Heart is Beating

Discussion in 'Tamil Guitar Tabs - Submit or Request' started by saratchaitanya, Feb 2, 2009.

  1. saratchaitanya

    saratchaitanya New Member

    I have been following IGT for quite sometime and it really ROCKS!!! Great platform to share/learn/enjoy music....I am a beginner and found lot of stuff useful in here.

    Anyone out there, can I get the chords 4 tel# "My Heart is Beating" from the movie Jalsa?
    Here is the song : http://in.youtube.com/watch?v=q8CS18a0nG4

    I thought I found one major chord i.e. Bm, but am not sure. Need the exact chords, strumming pattern, melody and lead.

    Thanks a lot in advance...
     
  2. kashyappvp

    kashyappvp New Member

    can some body tell me how to read this plzzzzzzzzz


    Arya (Na premanu kopangano)......
    naa premanu kopamganu naa premanu shapam ganu
    e--12-10-8-10-12-10-8-10-12-- (2T)
    b---------------
    g--------------
    d-----

    naa premanu neramganu sakiya feel my love
    e--12-10-8--10-12----------
    b------------------12--12--11--9----
    g------------------------------------


    naa premanu sunayamgano naa premanu heenam gano
    e--
    b------9--11--8-8-10--9------9-11-8-8--10-----
    g---10--------------------10--------------------

    feel my love feel my love..........
    e---12-10-8-10-12----------------------
    b---------------------10--8--7--8--10----
     

Share This Page