req.. JAL PARI and ADAT with some changes and easy 4 begginers?

Discussion in 'Pakistani Guitar Tabs - Submit or Request' started by scorpionhai, Sep 24, 2004.

  1. scorpionhai

    scorpionhai New Member

    hizz buddies.. yaar i need JAL PARI song CHORDS and TABS..
    and i also need JAL ADDAT need chord. but will explanation.
    bcoz in this site we have many chords and tabs. but begginers cant read that chords. plzz post it with full explanantion.
    there is many diffrennts chord which we r listning ist time just like

    A Bsus2 A/C#add7 A/C#add9 C#sus2 C#m A5 C#5 B5
    002220 224422 002242 002255 446644 446654 577000 046600 024400



    e|-------------4------4------4------4--------|
    B|--------4------4------4------4------4------|
    G|------6---6------6------6------6------6----|
    D|----6--------------------------------------|
    A|-------------------------------------------|
    E|-------------------------------------------|


    plz define it also......
     
  2. ijlal

    ijlal The B chord

    well scorpionhai the guitar tabulature is already explained in stiky topic.........plz read that topic ...
     
  3. Quadrophenia

    Quadrophenia New Member

    bro, tabs and chords dont come with explanations..how ever..try reading some online tutorials on how to read tabs and chords. from ultimate-guitar.com (lessons section)
     
  4. rajujee

    rajujee New Member

    hi yah i have the tab and chord of jall pari ..addat..and many more
    enjoy it...........
    CHORDS:
    A Bsus2 A/C#add7 A/C#add9 C#sus2 C#m A5 C#5 B5
    002220 224422 002242 002255 446644 446654 577000 046600 024400



    e|-------------4------4------4------4--------|
    B|--------4------4------4------4------4------|
    G|------6---6------6------6------6------6----|
    D|----6--------------------------------------|
    A|-------------------------------------------|
    E|-------------------------------------------|


    Aaaaaaaaaaaaaaaaaaaaaaaaaaaaaaaaaaaaaaaaaaaaaaaaaaaaaaaaaaaaaaaaa
    e|-------------4------4------4------4--------|------------2-----2-----2-----2--------|
    B|--------4------4------4------4------4------|-------2------2-----2-----2-----2------|
    G|------6---6------6------6------6------6----|-----4---4------4-----4-----4-----4----|
    D|----6--------------------------------------|---4-----------------------------------|
    A|-------------------------------------------|---------------------------------------|
    E|-------------------------------------------|---------------------------------------|

    Najane Kab say
    e|-------------4------4------4------4--------|
    B|--------4------4------4------4------4------|
    G|------6---6------6------6------6------6----|
    D|----6--------------------------------------|
    A|-------------------------------------------|
    E|-------------------------------------------|

    Umedain kuch baaqi hainnnnnnnnnnn
    e|-------------4------4------4------4--------|------------2-----2-----2-----2--------|
    B|--------4------4------4------4------4------|-------2------2-----2-----2-----2------|
    G|------6---6------6------6------6------6----|-----4---4------4-----4-----4-----4----|
    D|----6--------------------------------------|---4-----------------------------------|
    A|-------------------------------------------|---------------------------------------|
    E|-------------------------------------------|---------------------------------------|

    Mujhey phir bhi teri yaadddddddddddd kyonnnnnnn
    e|-------------4------4------4------4--------|-------------4-----4-----4-----4-------|
    B|--------4------4------4------4------4------|-------4-------4-----4-----4-----4-----|
    G|------6---6------6------6------6------6----|-----6---6-------6-----6-----6-----6---|
    D|----6--------------------------------------|---6-----------------------------------|
    A|-------------------------------------------|---------------------------------------|
    E|-------------------------------------------|---------------------------------------|

    aati haiiiiiiiiii Najane Kab say .................
    e|-------------2------2------2------2--------|---4---|
    B|--------2------2------2------2------2------|---4---|
    G|------4---4------4------4------4------4----|---6---|
    D|----4--------------------------------------|---6---|
    A|-------------------------------------------|---x---|
    E|-------------------------------------------|---x---|




    CHORDS: 3 4 1 2
    A Bsus2 A/C#add7 A/C#add9 C#sus2 C#m A5 C#5 B5
    002220 224422 002242 002255 446644 446654 577000 046600 024400

    [0:50] (now rhythm kicks in)

    C#sus2 - C#m , C#sus2 - C#m , A/C#add7 - A/C#add9 , A/C#add7 - A/C#add9 x 1


    [1:00]

    C#sus2 - C#m , C#sus2 - C#m , A/C#add7 - A/C#add9 , A/C#add7 - A/C#add9 x 1


    e|---------4-------------4-------------2--------2----|
    B|-------4---4---------4---4---------2---2------2----|
    G|-----6-------6-----6-------6-----4-------4----4----|
    D|---6-------------6-------------4--------------4----|
    A|----------------------------------------------2----|
    E|----------------------------------------------2----|

    CHORDS:
    A Bsus2 A/C#add7 A/C#add9 C#sus2 C#m A5 C#5 B5
    002220 224422 002242 002255 446644 446654 577000 046600 024400


    [1:08]

    C#sus2 Bsus2 A Bsus2
    Duur jitna bhi tum mujh say, paas teray main
    C#sus2 Bsus2 A Bsus2
    Ab to Aadat si hai mujko aisay jeenay main
    C#sus2 Bsus2 A Bsus2
    Zindagi say koi shikwa hi nahin hai
    C#sus2 Bsus2 A Bsus2
    Ab to zinda houn mein is neelay aasmaan main


    [1:44] ([x] = its upto you if you wanna play it)

    chords played : C#sus2, A, C#sus2, A, Bsus2

    e|----------4------7--4--------4-----7--4----|---------2-------2-------2-----------|
    B|--------4----[4]-----------4---[4]---------|-------2-------2-------2-----2-------|
    G|------6------------------6-----------------|-----4-------4-------4---------4-----|
    D|----6------------------6-------------------|---4---------------------------------|
    A|-------------------------------------------|-------------------------------------|
    E|-------------------------------------------|-------------------------------------|



    e|----------4------7--4--------4-----7--4----|---------2-----------2--------|
    B|--------4----[4]-----------4---[4]---------|-------2-------------2--------|
    G|------6------------------6-----------------|-----4-------4-------4--------|
    D|----6------------------6-------------------|---4-----------------4--------|
    A|-------------------------------------------|---------------------x--------|
    E|-------------------------------------------|---------------------x--------|

    CHORDS:
    A Bsus2 A/C#add7 A/C#add9 C#sus2 C#m A5 C#5 B5
    002220 224422 002242 002255 446644 446654 577000 046600 024400

    [2:02]

    C#sus2 Bsus2 A Bsus2
    Chahat aisi hai yay teri, barhti jayay
    C#sus2 Bsus2 A Bsus2
    Aahat aisi hai yay teri mujh ko satayay
    C#sus2 Bsus2 A Bsus2
    Yaadain gehri hain itni dil duub jaayay
    C#sus2 Bsus2 A Bsus2
    Aur aankhon main yay ghum num ban jayay
    C#m Bsus2 A Bsus2
    Hayhayyyyyyyyyyyy ooooooooooooo HOoooooooooooo



    [2:46] (m = mute)

    e|--------------------------------------------------------------------
    B|---5-7--9m-9m-9---7-5--4m-4m-4-4---4-5-4-2--5m-5---5s7--5-4---------
    G|--------------------------------------------------------------------
    D|--------------------------------------------------------------------
    A|--------------------------------------------------------------------
    E|--------------------------------------------------------------------

    e|----------------------------------------------------------------------
    B|-5-7-9m-9-9m-9-9--9/12--14--14s16--14--12-12--12-10-10/12-10--10p9s7--
    G|----------------------------------------------------------------------
    D|----------------------------------------------------------------------
    A|----------------------------------------------------------------------
    E|----------------------------------------------------------------------



    [3:05]

    C#sus2 Bsus2 A Bsus2
    Ab to Aadat si hai mujko aisay jeenay main


    [3:15]

    (electric guitar as rhythm)

    Heyheyyyyyy ooooooo Hooooooooooooooo
    -
    Aaaaaaaaaaaaaaaaaaaaa oooooooooooooooo
    e|---4---7-----4---7-----4---2---4---x--------
    B|---4---7-----4---7-----4---2---4---x--------
    G|---6---x-----6---x-----6---4---6---x--------
    D|---6---x-----6---x-----6---4---6---7--------
    A|---4---x-----4---x-----4---2---4---7--------
    E|---4---x-----4---x-----4---2---4---5--------


    [3:32]

    C#5 A5 B5
    Sabhi raatain hain, sabhi baatain hain
    C#5 A5 B5
    Bhulado unhain mitado unhain

    [3:49]

    rhythm:

    C#5 - C#5 - A5 - B5 - C#5 - A5 - B5 - C#5 C#sus2
    AAAAAAAAAAaaaaaaaaaaaaaaaaaaaaa oooooooooo (single strum)


    [4:08]

    (acoustic) [fill 1] [fill 2] [fill 1] [half of fill 2]
    e|----------4------------------2------------------4-------------------2---|
    B|--------4------------------2------------------4-------------------2-----|
    G|------6------------------4------------------6-------------------4-------|
    D|----6------------------4------------------6-------------------4---------|
    A|------------------------------------------------------------------------|
    E|------------------------------------------------------------------------|

    little fill in between the above pattern:

    (acoustic: finger picking)

    fill 1 fill 2
    e-----4---4------|----2---2--|
    B---4---4--------|--2---2----|



    Ab to Aadat si hai mujko.
    contact me ...rajujee_xtra@hotmail.com
    this is easy to play......its mine
    e-----------5-6-5-5-5---------------------------------------------
    B--------------------8-6-5-5-5-5-6-5-3-6-6h8-8p6-5----------------
    G-----------------------------------------------------------------
    D-----------------------------------------------------------------
    A-----------------------------------------------------------------
    E-----------------------------------------------------------------


    e------5-6-5-5-8-10-8///12-10-8-8//6-6//8-6-5-3-------------------
    B-----------------------------------------------------------------
    G-----------------------------------------------------------------
    D-----------------------------------------------------------------
    A-----------------------------------------------------------------
    E-----------------------------------------------------------------
     
  5. Werdah

    Werdah New Member

    please

    raju jee..plzzzzzzzzzz PLEASEE post Jal pari
     
  6. The_Vampire

    The_Vampire New Member

    i m searching for guitar chords for <<Addat>> by Jal
     
  7. RAVISHINGBOY

    RAVISHINGBOY J@CksoN BoY !

    yar can u help me with finger Postioning ...
    with sus2 cords !!
    can u tell me wht are B5 ?means like only to Pick D , A , E strings ?
    2) can u tell me wht are there cords ?? and their positioning
    A/C#add7 - A/C#add9 x 1 ??
     
  8. RAVISHINGBOY

    RAVISHINGBOY J@CksoN BoY !

    Dose add 7 means like C#7 ??
    ok wht dose add9 means ?
     
  9. badullah

    badullah Dark Inside

    Thanks guys great tabs :)
     
  10. hehaa

    hehaa New Member

    Well dudes, jal pari has gone old, can u give me the tabs or chords whtever for the song like PANCHI and MANCHALA by JAL
    these are really nice song, ans specially the tabbing in the song is waoooooooooooo
    so have a look
     
  11. ali_123

    ali_123 New Member

    yaar plz any 1 give me the chords os "sajan"by meekal hasan band thks waiting 4 reply
     
  12. BaAaLi

    BaAaLi New Member

    u may be find the chords for any mekaal hassan's songs.... @ www.mekaalhasanband.com there... go to the Forum page.
     
  13. BIG_EVIL

    BIG_EVIL Guitaring Machine

    jal pari...unplugged version= only 2 chords D and G bar form..they sound gud to me...how abt u guys
     
  14. Liquid

    Liquid New Member

    can we plz have the correct strumming pattern for addat
     
    theguitaristofm likes this.
  15. kaka

    kaka New Member

    plz tell me the unplugged version of Jalpari ..i dont know the chords D or G whatever ..plz tell me the tabs of the chords which used in Jalpari Unplugged version ..

    thank you
     
  16. rizaaj

    rizaaj Forum Leader

    i guess jalpari unplugged version is based on jus two chords i.e. A & G
    A=002220
    G=355433 or 320003
     
  17. BIG_EVIL

    BIG_EVIL Guitaring Machine

    hey KAKA ...i have already posted jalpari tabs
     
  18. xee

    xee New Member

    well as far as i knw... there are only 2 chords being used in unplugged version of Jal pari n they are Amin barre chord and Gmin barre chord....
     
  19. nadish

    nadish Active Member

    Yarr can ne1 posts guitar Tabs as well as chords of Sajan and Rabba by Mekaal Hasan???????????
     
  20. Seeker

    Seeker New Member

    Dunno!!

    heya listen i understand wat string to play but the chords u explainedd in the song are not understandable plz zara alag se chords ka bata do... wat duz sus.. etc. mean?
     

Share This Page