REQ:-i want "ek haseena thi" song

Discussion in 'Hindi Guitar Tabs - Submit or Request' started by prachi_ee, Jul 21, 2007.

  1. prachi_ee

    prachi_ee New Member

    plz help me. i justed start learning plz send me easiest song tabs
     
  2. kaylash

    kaylash Member

    Here yopu go Sir

    THIS IS NOT MY JOB. I found it in IGT. Therefore HUGE CREDIT goes to this guitarist. (copied and pasted). Try his chords. Its the best of the best, for me. Listen to the song carefully before playing it as strumming changes from time to time. Good Luck Son. If you need the tabs, I have them too.
    GREAT SONG THIS IS.

    NC.........G...................Ab
    Ik Hasiinaa Thii, Ik Diivaanaa Thaa


    G..........................Ab..... G...... Ab...Bb.....Cm
    Kyaa Umar, Kyaa Samaa, Kyaa Zamaa..naa Thaa..aaaa...aaa ...


    Cm..........G.............................................Ab
    Ik Hasiinaa Thii (hasina thi), Ik Diivaanaa Thaa (divaana tha)



    G..........................Ab..... G.... Ab...Bb.....Cm
    Kyaa Umar, Kyaa Samaa, Kyaa Zamaa..naa Thaa..aaaa...aaa ...



    NC........Ab...............G
    Ek Din Vo Mile, Roz Milane Lage

    G.............Ab.................G.
    Phir Muhabbat Huii, Bas Qayaamat Huii

    NC...Cm
    Kho Gaye Tum Kahaa.N, Sun Ke Ye Daasataa.N

    Cm
    Log Hairaan Hai.N, Kyo.N Kii An_Jaan Hai.N

    Cm.............Ab..................G.......
    Ishq Kii Vo Galii, Baat Jisakii Chalii

    Cm (Strum the strings with a hard first stroke)
    Us Galii Me.N Meraa Aanaa, Jaanaa Thaa

    Cm............G.........Cm.................
    Ik Hasiinaa Thii, Ik Diivaanaa Thaa ...

    Cm
    Kyaa Umar thi, Kyaa Samaa tha, Kyaa Zamanaa Thaa

    Cm............G.........Cm.................
    Ik Hasiinaa Thii, Ik Diivaanaa Thaa ...


    NC..............G.........................................
    Us Hasiin Ne Kahaa, Us Hasiin Ne Kahaa, Suno Jaan\-E\-Vafaa

    G
    Ye Falaq Ye Zamii.N, Tere Bin Kuchh Nahii.N

    ...........Ab.........G.......Ab.................G......
    Tujhape Maratii Huu.N Mai.N, Pyaar Karatii Huu.N Mai.N

    .......Ab.......G........Ab.........G
    Baat Kuchh Aur Thii, Vo Nazar Chor Thii

    NC................Ab.....G................Cm
    Usake Dil Me.N Chhupii, Chaahat Aur Garzii Thii

    Cm
    Pyaar Kaa, To Faqat, Ik Bahaanaa Thaa

    Cm............G.........Cm.................
    Ik Hasiinaa Thii, Ik Diivaanaa Thaa ...



    NC.........Ab..................
    Bevafaa Yaar Ne, Apane Mahabuub Se



    Csus2
    Aisaa Dhokhaa Kiyaa
    - Dhokhaa, Dhokhaa, Dhokhaa, Dhokhaa -

    Csus2................Csus2
    Aisaa Dhokhaa Kiyaa, Zahar Usako Diyaa
    - Dhokhaa, Dhokhaa, Dhokhaa, Dhokhaa -Dhokaaaaaaaaa

    Lead
    E |-----------------------------------------------------------------------
    B |---3---3--4---3---3--4---3---3--4----------------3----------3---1h3--
    G |-----5----------5----------5------5---5--5--2--5---4---4--5----------5-5--|
    D |-----------------------------------------------------|
    A |-----------------------------------------------------------------------
    E |-----------------------------------------------------------------------

    Cm
    Roo roo roo roo...roo roo roo roo.. roo roo roo roo rooooooo

    Cm...................G.................Cm
    Roo roo roo roo roooooooo....ru ru ru rooo rooooo


    Ab..........G
    Mar Gayaa, Vo Javaa.N


    .....Ab....G....Cm
    Ab Suno Daasataa.N

    Cm..............Ab......................G........
    Janm Le Kar Kahii.N, Phir Vo Pahu.Nchaa Vahii.N

    G.............Ab................Cm
    Shaql An_Jaan Kii, Aqal Hairaan Kii

    Cm
    Saamanaa Jab Huaa, Phir Vahii Sab Huaa (twice)

    .......G.......Cm.........G........Cm.......
    Usakaa Ye Farz Thaa, Usape Ye Qarz Thaa

    Cm............ Ab.....G....Ab...Cm
    Farz Ko, Qarz Apanaa, Nibhaanaa Thaa

    Ab........G..........Cm
    Laaaa...Laaaa....Laaaaa

    Cm
    La la la la....la la la la...la la la la laaaaaaa

    Cm...........G......................Cm
    La la la la laaaaaa.....la la la laaaa..laaaa
     
  3. gulabjamun2

    gulabjamun2 New Member

    Here you go...again !

    I realize that you created two threads for the same request.

    Anyways, I wouldn't want to be too harsh as you are a newbie. So I am going to post the same reply that I posted in your other thread:


    Since you are a newbie, I decided to do the hard work for you this time.

    For the intro and interludes, check out:
    http://www.indianguitartabs.com/showthread.php?p=62531&highlight=ek+hasina+thi#post62531

    Tabs for vocals: check post #34 by Bandbaaja at the following link:
    http://www.indianguitartabs.com/showthread.php?t=4943&highlight=ek+hasina+thi

    Most of the popular songs have already been posted before. The "search" link towards the top of the screen is your friend ;)

    Cheers!
    :beer:
     
  4. Ricky_Rich

    Ricky_Rich New Member

    Hi Prachi_ee..If u r a newbie iwould suggest u to go 4 lead (not chords)..first of all clear ur self in lead..then it will b easier for u to go for chords.. |
     
  5. prima

    prima New Member

    Karz

    Here's ur tab for the vocal melody of the song... sorry 4 the delay..

    Film : Karz
    Song : Ek Hasina Thi
    Vocal Melody.


    E |-----------------------------------------------------------------------------------------|
    B |---4--3-----3---------3----------------------------------------------------3--4---6--4---|
    G |---------5-----4---------5--4--5---------------------------------5---4--5----------------|
    D |----------------------------------6------------------6---8--5---------------------------|
    A |-----------------------------------------6---8-5-----------------------------------------|
    E |-----------------------------------------------------------------------------------------|

    Ek ha si na thi....Ek di wa na tha....kya u mar...kya sa ma...kya ja ma na tha aa aa

    E |-----------------------------------------------------------------------------------------|
    B |---4--3-----3---------3----------------------------------------------------3--4---6--4---|
    G |---------5-----4---------5--4--5---------------------------------5---4--5----------------|
    D |----------------------------------6------------------6---8--5---------------------------|
    A |-----------------------------------------6---8-5-----------------------------------------|
    E |-----------------------------------------------------------------------------------------|

    Ek ha si na thi....Ek di wa na tha....kya u mar...kya sa ma...kya ja ma na tha aa aa

    E |-----------------------------------------------------------------------------------------------|
    B |-----------------------------------------------------------------------------------------------|
    G |---------s-------------------s----------------------s-----------4----------------s-------------|
    D |---5-5--6/8-8--6-6-----3-3--5/6-6--5-5-----5----5--6/8-8---6-6-----6-----3---3--5/6-6---5-5----|
    A |-----------------------------------------------------------------------------------------------|
    E |-----------------------------------------------------------------------------------------------|

    e k din o mili....log mil ne lage....phir mo hab bat huyi ee ee....bas ka ya mat huyi

    E |-----------------------------------------------------------------------------------------|
    B |-------------3---3--4---------------3-3--4--------------3-3--4-----------------3-3--4----|
    G |---5---4--5---------------5---4--5-------------5-4--5---------------5----4--5------------|
    D |-----------------------------------------------------------------------------------------|
    A |-----------------------------------------------------------------------------------------|
    E |-----------------------------------------------------------------------------------------|

    kho ga ye tum ka ha....sun ke ye das ta....log hai ran hai....kyun ki an jan hai

    E |-----------------------------------------------------------------------------------------|
    B |---4----3--------------------------------------------------------------------------------|
    G |-----------5---3-------------8----5-3----------------------------------------------------|
    D |-------------------5--6--6-8-----------6---6/8--3--5-------------------------------------|
    A |-----------------------------------------------------------------------------------------|
    E |-----------------------------------------------------------------------------------------|

    ishq ki hai woh ga li e e e....hat jis ki chali

    E |-----------------------------------------------------------------------------------------|
    B |---3-----3--4----3-----3--4----3-----3--4---------------3---------3---s------------------|
    G |------5-------------5-------------5--------5---5--2--5-----4---5-----5/7-5--5------------|
    D |-----------------------------------------------------------------------------------------|
    A |-----------------------------------------------------------------------------------------|
    E |-----------------------------------------------------------------------------------------|

    us gali mein me ra aa na...j a a na tha ek ha si na thi ek di wa na tha

    E |-----------------------------------------------------------------------------------------|
    B |---3-----3---4---3------3--4---3------3--4---------------3---------3---s-----------------|
    G |-------5-------------5-------------5--------5---5--2--5-----4---5-----5/7-5--5-----------|
    D |-----------------------------------------------------------------------------------------|
    A |-----------------------------------------------------------------------------------------|
    E |-----------------------------------------------------------------------------------------|

    kya u mar thi kya sa ma tha kya ja ma na tha ek ha si na thi ek di wa na tha

    E |-----------------------------------------------------------------------------------------|
    B |-----------------------------------------------------------------------------------------|
    G |----------p--------------------p--------------------p------------------------------------|
    D |---5--5--6/5--3-----3---5--5--6/5--3-----3---5--5--6/5--3-----3--------------------------|
    A |-----------------6--------------------6--------------------6-----------------------------|
    E |-----------------------------------------------------------------------------------------|

    us ha seen ne ka ha..us ha seen ne ka ha..su no ja ne wa fa

    E |------------------------------------------------------|
    B |------------------------------------------------------|
    G |----------p-------------------------------------------|
    D |---5--5--6/5--3------3---5--5--6---3-------3----------|
    A |------------------6---------------------6-------------|
    E |------------------------------------------------------|

    ke pa lat yeh tu mi..te re bin kuch na hin

    E |-------------------------------------------------------------------------------------|
    B |-------------------------------------------------------------------------------------|
    G |---5----4--5--------------5-4--5--------------5-4--5-------------5---4--5------------|
    D |---------------6--5--5-------------6--5--5--------------6-5--5--------------6-5--5---|
    A |-------------------------------------------------------------------------------------|
    E |-------------------------------------------------------------------------------------|

    tujh pe mar ti hu mein pyar kar ti hu main baat kuch aur thi woh na zar tor di

    E |--------------------------------------------------------|
    B |---4--3-------------------------------------------------|
    G |---------5---3-------------8--5--3------s---------------|
    D |----------------5---6--6-8----------6--6/8--3--5--------|
    A |--------------------------------------------------------|
    E |--------------------------------------------------------|

    us ke dil me chu pi e e e **** ****** ki si (cudn't make out the words)

    E |-----------------------------------------------------------------------------------------|
    B |---3-----3--4--3-----3--4----3-----3--4---------------3---------3---s--------------------|
    G |------5----------5--------------5--------5---5--2--5-----4---5-----5/7-5--5--------------|
    D |-----------------------------------------------------------------------------------------|
    A |-----------------------------------------------------------------------------------------|
    E |-----------------------------------------------------------------------------------------|

    pyaar ka a o pha saak ek ba ha na tha ek ha si na thi ek di wa na tha

    E |----------------------------------------------p------------------p-----------|
    B |---------------------------------------4--4--4/3-3-----3--4--4--4/3-3-----3--|
    G |---------------------------h------------------------5------------------5-----|
    D |------------0----1--5--3--3/5------------------------------------------------------|
    A |---3--2--3--------------------6--5--6------------------------------------------|
    E |------------------------------------------------------------------------------|

    be wa fa yaar ne ap ne mah boob se ai sa dho ka ki ya ai sa dho ka ki ya

    E |----------p------------------p--------------|
    B |---4--4--4/3-3-----3--4--4--4/3-3-----3-----|
    G |----------------5------------------5--------|
    D |--------------------------------------------|
    A |--------------------------------------------|
    E |--------------------------------------------|

    jahar uskoo di ya jahar uskoo di ya

    E |------------------------------------------------------------------------------|
    B |---3---3--4---3---3--4---3---3--4----------------3----------3---s-------------|
    G |-----5----------5----------5------5---5--5--2--5---4---4--5----5/7--5---------|
    D |------------------------------------------------------------------------------|
    A |------------------------------------------------------------------------------|
    E |------------------------------------------------------------------------------|
     

Share This Page