req:hoobastank and maroon5

Discussion in 'English Guitar Tabs - Submit or Request' started by axlrose250, Oct 29, 2004.

  1. axlrose250

    axlrose250 New Member

    hello
    i need 2 tabs please. one by hoobastank called The Reason and moroon5 She will Be Loved. please
    thanks :rockon:
     
  2. rizaaj

    rizaaj Forum Leader

    THe Reason

    Standard Tuning
    Intro
    ----------------------------------------------------------------------------
    -----------------------7--9--------7--9-----7--9--------7--9-----------------
    -----------------------------8--9--------8--------8--9--------8--------------
    -----------------------------------------------------------------------------
    -----7-7-7-7-7-7-7-7-7--7--7--7--7--7--7--7--7--7--7--7--7--7----------------
    ------------------------------------------0--0--0--0--0--0--0----------------
    Verse
    -----------------------------------------------------------------------------
    ----------9h10p9-------------------------------------------------------------
    -----9x9x9-------------------------------------------------------------------
    -----9x9x9--------x2---11x11x11--------------------------------------------x2
    -----7x7x7-------------11x11x11--x2------------------------------------------
    -----------------------9-x9-x9---------------------------------------------

    -----------------------------------------------------------------------------
    ---2x2x2---------------------------------------------------------------------
    ---2x2x2---------------4x4x4-------------------------------------------------
    ---2x2x2----------x2---4x4x4-----x2------------------------------------------
    -----------------------2x2x2-------------------------------------------------
    -----------------------------------------------------------------------------
    Chorus
    -----------------------------------------------------------------------------
    -----------------------------------------------------------------------------
    ---1x1x1-------6x6x6---------------------------------------------------------
    ---2x2x2-------6x6x6-------7x7x7-------9x9x9---------------------------------
    ---2x2x2---x2--4x4x4---x2--7x7x7---x2--9x9x9---x2----------------------------
    ---------------------------5x5x5-------7x7x7---------------------------------
    Interlude
    ---------------2x2x2h3p2-----------------------------------------------------
    ---------------3x3x3------x2-------------------------------------------------
    --2x2x2--------2x2x2---------------------------------------------------------
    --2x2x2-------------------------------------------------------------------- 4
    --1x1x1---x2-----------------------------------------------------------------
    -----------------------------------------------------------------------------

    End on
    -------
    -------
    -2-----
    -2-----
    -1-----
    -------


    Order

    Intro

    Verse x2

    Chorus

    Verse x2

    Chorus

    Interlude x4

    Chorus x2

    End



    Hope you like!!
     
  3. rizaaj

    rizaaj Forum Leader

    She will be loved

    Try this stuff! its quite easy

    -----------------------------
    Key:
    ( ) - play it but barely (softly)
    x - mute
    -----------------------------

    -----------------------------
    Note: Play each section however much is needed, look at the outline
    at the bottom for a ruff estimate as to when to start and stop.
    -----------------------------


    Intro/Verse/Bridge:

    E---(3)--3---3---3---3--------(6)---6---6---6---6--
    B---(4)--4---4---4---4--------(6)---6---6---6---6--
    G---(5)--5---5---5---5--------(7)---7---7---7---7--
    D----5--(5)-(5)-(5)-(5)-------(8)---8---8---8---8--
    A----3--(3)-(3)-(3)-(3)--------8---(8)-(8)-(8)-(8)-
    E----x---x---x---x---x---------6---(6)-(6)-(6)-(6)-



    Chorus:

    E------------------------(6)-(6)-(6)-(6)-(6)-(6)-(6)-(6)----
    B------------------------(6)-(6)-(6)-(6)-(6)-(6)-(6)-(6)----
    G---8-8-8-8-8-8-8-8-------7---7---7---7---7---7---7---7-----
    D---8-8-8-8-8-8-8-8--(0)--8---8---8---8---8---8---8---8-----
    A---6-6-6-6-6-6-6-6--(0)--8---8---8---8---8---8---8---8-(0)-
    E---x-x-x-x-x-x-x-x-------6---6---6---6---6---6---6---6-(0)-


    E---(3)-(3)-(3)-(3)-(3)-(3)-(3)-(3)------(4)-(4)-(4)-(4)-(4)-(4)-(4)-(4)----
    B---(4)-(4)-(4)-(4)-(4)-(4)-(4)-(4)------(4)-(4)-(4)-(4)-(4)-(4)-(4)-(4)----
    G----5---5---5---5---5---5---5---5--------5---5---5---5---5---5---5---5-----
    D----5---5---5---5---5---5---5---5--(0)---6---6---6---6---6---6---6---6-----
    A----3---3---3---3---3---3---3---3--(0)---6---6---6---6---6---6---6---6-(0)-
    E----x---x---x---x---x---x---x---x--------4---4---4---4---4---4---4---4-(0)-



    Outline:

    Intro - Starts at (0:00) Ends at (0:10)
    Verse - Starts at (0:11) Ends at (0:47)
    Chorus - Starts at (0:48) Ends at (1:16)
    Verse - Starts at (1:18) Ends at (1:55)
    Chorus - Starts at (1:56) Ends at (2:33)
    Bridge - Starts at (2:34) Ends at (2:53)
    Verse - Starts at (2:57) Ends at (3:04)
    Chorus - Starts at (3:06) Ends at (4:03)

    -----------------------
    Remember, the bridge im not sure about but its as close as im gonna get to, and
    if you have a problem with that then go ahead and tab its yourself you dang lazy
    monkey shyt =)
    -----------------------
    :rockon:
     
  4. axlrose250

    axlrose250 New Member

    thanks rizaaj, they luk complicated but ill try them out
     
  5. DrSaurabh

    DrSaurabh Wh@+s Up D0C

    ok axl u lazy bum ....too lazy to reply to IMs:)....here it is ...download it...:p
     

    Attached Files:

  6. axlrose250

    axlrose250 New Member

    saurabh yaar, man i did post a reply 2 ur msg. im still kinda new to this so if it didnt get 2 u sorry.

    one more thing man, how do i run this file :p
     
  7. rizaaj

    rizaaj Forum Leader

    yaar jus download the Winzip software from http://www.winzip.com or if you are using windows XP then no need for that, jus extract the files :)
     
  8. thnx for the tabs n chords wel i simply love the song THE REASON ITS A VERY NICE ONE BY HOOBASTANK
     
  9. Ali Kay

    Ali Kay New Member

    hi this is the reason by hoobastank but it isnt mine all the credit should go to the guy i got it off
     

    Attached Files:

  10. hey before being given the permission to open it i was asked for my igt id n password is it normal procedure???????? will try the chords n tabs later thnx anyway
     

Share This Page