Req: Entha poovilum Vasam undu Tabs- Muratu kalai

Discussion in 'Tamil Guitar Tabs - Submit or Request' started by redhathari, Apr 5, 2009.

  1. redhathari

    redhathari New Member

    Hi,

    Can anybody post tabs for the song "Entha Poovilum Vasam Undu" from the Flim "Murattu Kalai".

    Thanks
    Hari
     
  2. It has been two years since this request was put up.....
    I woke up at three in the morning because of some noise, and later couldn't fall asleep.
    A particular tune was ringing in my head. I picked up my guitar and tried to play it.. I could play it but could not remember the song though.
    I am not Tamizh, so it was even more difficult for me to remember this song.

    After 1 hr of playing it on my guitar i guessed a few lyrics, googled them up to find THIS song!

    The song starts with>
    E>-----------------------------------------------------------0--------
    B>-0-1-3---1-0------0-1-0------0-1-3---1-0----1-3----3------
    G>-------------------2-------------------------------------------------

    Regards,
    Abhay
     
  3. cibhin

    cibhin New Member

    Well that was a good tab Abhay, Its actually a Classical Master piece called Danza by Antonio Ruiz Pipo

    hear is my try :

    E-2-3-5-3-2-0-2-3-2----2-3-5-3-2-3-5-7-5---2-3-5-3-2-0-2-3-2--0-2-3-5-3------------!!
    B----------------------------------------------------------------------------5-3-2-5-3-!!
    G--------------------------------------------------------------------------------------!!
    D--------------------------------------------------------------------------------------!!
    A--------------------------------------------------------------------------------------!!
    E--------------------------------------------------------------------------------------!!
     
  4. nice bro....
    The best part is we both are correct, just differ in scales.
    I just was advised by Sathya Sir, that the original key was five notes more than what i tabbed
    Which means the original key would be something like this>
    E>-0-1-3-1-0----0-1-0-----0-1-3-1-0-1-3-5-3------0-1-3-1-0----0-1-0---*---0-1-3-1----0--------------------
    B>---------------3---------------------------------------------------------3-------------3-----------------3-1-3-1----------

    I have added a star in the tabs. the next eight notes of the tabs after the star are to be played in two fast riffs of four notes each :)
     
  5. pearlmaharajan

    pearlmaharajan New Member

    yes... this part is a fav of IR.. I remember once he stated that his best inspiration... and the next stanza were his own composing...
     
  6. v.raghura87

    v.raghura87 Member

    Thank you sir

    V.Raghuraj
     
  7. You are most welcome bro :)
    Regards,
    Abhay
     
  8. pearlmaharajan

    pearlmaharajan New Member

    cibhin... this is standing still... please complete a great song...


    thanks in advance
     
  9. Guitarsen

    Guitarsen New Member

  10. cibhin

    cibhin New Member

    e-2-3-5-3-2-0-2-3-2----2-3-5-3-2-3-5-7-5---2-3-5-3-2-0-2-3-2--0-2-3-5-3------------!!
    B----------------------------------------------------------------------------5-3-2-5-3-!!
    G--------------------------------------------------------------------------------------!!
    D--------------------------------------------------------------------------------------!!
    A--------------------------------------------------------------------------------------!!
    E--------------------------------------------------------------------------------------!!

    E-2-3-5-7--8-7-5-2-3-5-7--8-7-5-2-3-5-7--8-7-5-9-10-7-5|
    b----------------------------------------------------------|
    g----------------------------------------------------------|
    d----------------------------------------------------------|
    a----------------------------------------------------------|
    e----------------------------------------------------------|

    e-2-3-5-7--8-7-5--2-3-5-7--8-7-5-9-10-7--8-7-5-9-10-7-5--|
    b------------------------------------------------------------|
    g------------------------------------------------------------|
    d------------------------------------------------------------|
    a------------------------------------------------------------|
    e------------------------------------------------------------|

    e-2-3-5-3-2-0-2-3-2----2-3-5-3-2-3-5-7-5---2-3-5-3-2-0-2-3-2--0-2-3-5-3------------!!
    B----------------------------------------------------------------------------5-3-2-5-3-!!
    G--------------------------------------------------------------------------------------!!
    D--------------------------------------------------------------------------------------!!
    A--------------------------------------------------------------------------------------!!
    E--------------------------------------------------------------------------------------!!
     
  11. Keep up the good work Chibin....
    Can't wait to try this tomorrow :)
    I am on night duty , so don't have the guitar with me.
    Regards,
    Abhay
     
    v.raghura87 likes this.

Share This Page