REQ:Chords>>"and then he kissed me"(female version)

Discussion in 'English Guitar Tabs - Submit or Request' started by vini, Oct 21, 2005.

  1. vini

    vini Repeat Offender

    "And Then He Kissed me"
    Its by The Crystals(not sure)

    the lyrics go like>>







    there is a version of this song by Beach Boys also but the lyrics r diff. like he/his etc,. become she/her.. i mean like the guy is singing :mad: But this song is sung by a girl in my req....now y m tellin this is coz the song's tune is pretty much the same!

    Get me the Chords and the tiny (intro) riff which keeps playing later on also!
     
  2. vini

    vini Repeat Offender

    for ur ref the intro plays sumthing like this>>

    Code:
    D-----6--7--6------6--7--6-------------------
    A-7--------------7---------------------
    E-------------------------------------
    
    this goes on n on 
     
  3. bjr

    bjr Lady of the Evening

    I could try if you could send me the song....
     
  4. abhimanjrekar

    abhimanjrekar ----> Zhol-Man<----

    THEN I KISSED HER
    -----------------

    INTRO TAB:

    D ----------------
    A ------2-3---2---
    E 3---------------
    ^ ^ ^ ^


    G G G G G G
    [intro]

    G D G G
    Well I walked up to her and I asked her if she wanted to dance

    G D G G
    She looked awful nice, and so I hoped she might take a chance

    C G C G
    When we danced I held her tight, and then I walked her home that night

    G D G G
    And all the stars were shining bright and then I kissed her


    Each time I saw her I couldn't wait to see her again
    I wanted to let her know that I was more than a friend
    I didn't know just what to do, so I whispered "I love you"
    And she said that she loved me too, and then I kissed her


    C C6 Cmaj7 C6 C (notes: G-G-A-B D-C-G)
    I kissed her in a way that I'd never kissed a girl before

    A7 A7 D7
    I kissed her in a way that I hoped she'd like for evermore



    I knew that she was mine so I gave her all the love that I had
    Then one day she'll take me home to meet her mom and her dad
    And then I'll ask her to be my bride, and always be right by my side
    I felt so happy that I almost cried, and then I kissed her
    And then I kissed her
    And then I kissed her
    [repeat and fade]




    i never heard the song....here is the link
    http://www.ultimate-guitar.com/tabs/b/beach_boys/then_i_kissed_her_crd.htm
     
  5. abhimanjrekar

    abhimanjrekar ----> Zhol-Man<----

    artist: Kiss
    title: Then She Kissed Me
    album: Love Gun
    key: Db/bb
    tuning: STANDARD E A D G



    intro

    G------------
    D-----3-4-3-- do this six times
    A---4-------4
    E-----------


    first verse

    G----------------------------------------------
    D----3-4-3-----------------3-4-3---------
    A--4-------4-------------4-------4-------
    E-----------------------------------------

    well she walked up to me and


    G-------------------------------------------------
    D----------------------------3-4-3--------3-4-3---
    A----3-4-3-----------------4-------4----4-------4-
    E--4-------4--------------------------------------

    asked me if I wanted to dance


    G---------------------------------------------
    D-----3-4-3---------------------------------
    A---4-------4-------------------------3-4-3-
    E-----------------------------------4-------4

    she looked kind of nice and so I said I might take the chance


    G----------------------
    D----3-4-3-------3-4-3--
    A--4-------4---4-------4
    E----------------------


    chorus


    G------------------------------
    D-----------------------3-4-3--
    A----1-2-1------------4-------4-
    E--2-------2--------------------

    when we danced she held me tight
    then I walked her home that night


    G---------------------------------------------------------------------------
    D------------------------------------------------------3-4-3---------3-4-3--
    A----1-2-1-----------------3-4-3---------------------4-------4-----4-------4-
    E--2-------2-------------4-------4-------------------------------------------

    the stars above were shining bright and then she kissed me


    bridge

    (Gb)She kissed me in a way I'd never been kissed be(Db)fore
    (Ab)She kissed me in a way that I wanted to be kissed for ever (Eb)more


    verse (doing this from memory, sorry, can't remember the lyrics)

    chorus

    verse; rhythym solo; lead guitar

    chorus, just keep repeating the riff on Db to fade


    {{{{ i guess i have posted the opposite gender of song..,lollzz..newayz see if it works for u}} i came to know after posting.....
     
  6. vini

    vini Repeat Offender

    Thanx these r pretty close..but still not clikcing as such..BJR wait for my pm plz :)

    @abhimanjrekar

    gimme chord positions for:

    C6
    Cmaj7
    D7
    A7

    thanx again!! :rock:
     

Share This Page