Req : Chords and tabs 4 Its My Life - Bon Jovi

Discussion in 'English Guitar Tabs - Submit or Request' started by sigmund_q, Oct 17, 2005.

  1. sigmund_q

    sigmund_q New Member

    plpz help!!! :nw:
     
  2. lethal_sagitari

    lethal_sagitari New Member

  3. .:SpY_GaMe:.

    .:SpY_GaMe:. New Member

    I believe this song is actually played on a seven-string or a baritone, but I
    tabbed it for a standard guitar. If you do have one, play the C power chords low.

    INTRO:
    E|-----------|-----------|-----------|-----------|
    B|-----------|-----------|-----------|-----------|
    G|-5--5------|-----------|-5--5------|-----------|
    D|-5--5------|-----------|-5--5------|-----------|
    A|-3--3------|-----------|-3--3------|-----------|
    E|-----------|-----------|-----------|-----------|

    VERSE:
    E|-----------|-----------|--------------|-----------|
    B|-----------|-----------|--------------|-----------|
    G|*5-(5)-----|-----------|-5--5-x-x-5-5-|----------*|
    D|*5-(5)-----|-----------|-5--5-x-x-5-5-|----------*|
    A|-3-(3)-----|-----------|-3--3-x-x-3-3-|-----------|
    E|-----------|-----------|--------------|-----------|
    (^ play only at the second time)

    PRE-CHORUS:
    E|-----------|-----------|-----------|-----------|------|
    B|-----------|-----------|-----------|-----------|------|
    G|-5=========|======-x-x-|-----------|-----------|-rest-|
    D|-5=========|======-x-x-|-3--3------|-----------|------|
    A|-3=========|======-x-x-|-3--3------|-----------|------|
    E|-----------|-----------|-1--1------|-----------|------|

    CHORUS:
    E|-------------|-------------|-------------|-------------|
    B|-------------|-------------|-------------|-------------|
    G|*5========-5-|-5========-5-|-8========-8-|-7========-7-|
    D|*5========-5-|-6========-6-|-8========-8-|-8========-8-|
    A|-3========-3-|-6========-6-|-6========-6-|-5========-5-|
    E|-------------|-4========-4-|-------------|-------------|

    E|-------------|-------------|-------------|-------------|
    B|-------------|-------------|-------------|-------------|
    G|-5========-5-|-5==========-|-------------|------------*|
    D|-5========-5-|-6==========-|-8==========-|------------*|
    A|-3========-3-|-6==========-|-8==========-|-------------|
    E|-------------|-4==========-|-6==========-|-6=====7=====|

    Repeat INTRO
    Repeat VERSE
    Repeat PRE-CHORUS, at the end let the F power chord ring
    Repeat CHORUS

    BRIDGE:

    1st guitar:
    E|---------------|---------------|---------------|
    B|---------------|---------------|---------------|
    G|*-------------*|*-------------*|*-------------*|
    D|*6-6--x-6-6--x*|*8-8--x-8-8--x*|*6-6--x-6-6--x*|
    A|-6-6--x-6-6--x-|-8-8--x-8-8--x-|-6-6--x-6-6--x-|
    E|-4-4--x-4-4--x-|-6-6--x-6-6--x-|-4-4--x-4-4--x-|

    E|---------------|-----------------|
    B|---------------|-----------------|
    G|---------------|-----------------|
    D|-3-3--x-3-3--x-|-3-3-3-3-3-3-3-3-|
    A|-3-3--x-3-3--x-|-3-3-3-3-3-3-3-3-|
    E|-1-1--x-1-1--x-|-1-1-1-1-1-1-1-1-|
    P.M. --==release

    2nd guitar(solo):
    E|-------------------------------------------------------------------|
    B|---------------------------------4-6b8---8-8-8b6p4-6---------------|
    G|-7b8b7b8-etc........7b8b7p5----5---------------------3-5~~---------|
    D|-----------------------------6---------------------------------1---|
    A|-------------------------------------------------------------1---1-|
    E|-----------------------------------------------------------3-------|

    Both guitars:
    E|-----------|-----------|-----------|-----------|-----------|
    B|-----------|-----------|-----------|-----------|-----------|
    G|-5=========|===========|===========|===========|-5--5------|
    D|-5=========|===========|===========|===========|-5--5------|
    A|-3=========|===========|===========|===========|-3--3------|
    E|-----------|-----------|-----------|-----------|-----------|

    Repeat CHORUS 4x






    NOT MY WORK CHECK http://www.ultimate-guitar.com/tabs/b/bon_jovi/its_my_life_tab.htm
     
  4. sigmund_q

    sigmund_q New Member

    Thnx dude 4 the tabs n the link!!!!!!!!!
     

Share This Page