REQ: But it rained - Parikrama

Discussion in 'English Guitar Tabs - Submit or Request' started by vidhansinghai, Jun 30, 2004.

  1. vidhansinghai

    vidhansinghai New Member

    Hi guys,

    I need the chords for But it rained by Parikrama. Any ideas?
    Also, the tabs for the piece played by Sherpa in the end.

    Thanks
    Vidhan
     
  2. tejas

    tejas ..........

    I saw them like an year ago, but i haven't heard the song you mentioned (Or i did but don't know the name of the song). Anyway, where can i get mp3s of parikrama?
     
  3. Roadie2Rockstar

    Roadie2Rockstar New Member

    Hey tejas,

    This is a real good song of parikrama. they have a video for this single as well. As you know the band has not released an album, you probably can get hold of this song by purchasing GIR (great indian rock) volume 5.
     
  4. Hardik

    Hardik .:.:.:BoRn TaLenT:.:.:.

    parikrama- but it rained (chords)

    hi,i just loveeeee this song,its one of my favourites
    i can give you the chords,hope it will help,(i havent tried the solo part of this song,will tell you after i try,if u want)


    E----------------------B-----------A----------E
    Wrapped in a polythene tucked away safe in my mind

    E---------------------B--------A------E
    A little goodbye maybe or just a passing smile

    (While playing E justplay the A note(G string 2nd fret) at times while song to get the effect, if you have heard the song you'll know what i am talking about,just try and you'll know)

    E-----------------------B------------A----------E
    The birds fly away to the southern sky searching a home

    E----------------------------B-------A------E
    A bunch of paper flowers or a little boy left all alone

    E-------------G-----------D-------------A------E
    Can somebody hear me I'm screaming from so far away

    E---------------------------------D---------A-------E
    Morning who will calm you now, the evening is eclipsed again


    ----------D------A---E
    Well does life get any better

    -----D---------A----E
    More yesterday than today

    ------D---------------------A-----E
    How I thought the sun would shine tomorrow

    ------B
    But it rained . . .

    (THE REST HAS THE SAME PATTERN)

    They justified the cause for which Daddy might give up his life
    It's been so long, so long a time, still I miss Daddy at night
    The ache is long gone but the never keeps staring along
    The waters in the seas are high
    and all the sand castles have drowned

    Well does life get any better
    More yesterday than today
    How I thought the sun would shine tomorrow
    But it rained . . .



    :rockon:
     
  5. aeg0

    aeg0 Guitarıng Alchemist

    those chords sound really good hardik...good job!! can someone please post the solo.....the song is available for download on their official website..heres the link http://www.parikrama.com/bir/song.html
    btw, is this the only good song by parikrama???
     
  6. rizaaj

    rizaaj Forum Leader

    i got this one from http://www.cyberfret.com

    Code:
    Date: Mon, 6 Oct 2003 01:00:31 -0700 (PDT)
    From: MISHAL SANGHVI 
    Subject: p/parikrama/it_rained.crd
    
    SONG: BUT IT RAINED  (CHORDS ONLY)
    BAND: PARIKRAMA
    TABBED BY: HIRAK AND MISHAL(originally tabbed by Rajan Kansakar)
    
     
    do u have a better version? mail me at MISHAL153@YAHOO.COM
     
    VERSE:
     E                 B              A           E
    WRAPPED IN ......TUCKED..........SAFE........MIND
     E                B               A           E
    LITTLE...........ALL............PASSING......SMILE 
    
     E                B               A           E
    THE BIRDS.......SOUTHERN.........SEARCHING....HOME
     E                B               A           E
    A BUNCH..........LITTLE...........LEFT......ALONE
     
     E                D               A           E
    CAN'T...........SCREAMING........SO FAR......AWAY
    
     E                B               A           E
    MORNING..........EVENING ........EXACTLY.....SAME
    
    CHORUS:
    D      A     E    (X3)
    B  (LET THE CHORD RING INFINITELY TILL IT DIES OUT)
    
    VERSE 2:
     E       B      A       E
     E       B      A       E
     E       D      A       E
     E       B      A       E
    CHORUS:
    D      A     E    (X3)
    B  (LET THE CHORD RING INFINITELY TILL IT DIES OUT)
     
     
    D
    LA..LALA..LA..LALALA..LALA
     
    B
    LA..LALA..LA..LALALA..LALA
     
    
    
     
    
    GUITAR LEAD:
    < PLAY THESE CHORDS >
    E B A B (X8)
    E (LET RING FOREVER)
     
  7. Hardik

    Hardik .:.:.:BoRn TaLenT:.:.:.

    ^^^^those chords are exactly same as i've posted.....:p::)
     
  8. fictional_real

    fictional_real Pyaasi Jawani

    Has somebody given a try for the solo. I haven't tried it. Quite melodic one from sherpa.
     
  9. rocker_vish

    rocker_vish New Member

    heah guyz whats the strumming pattern...
     
  10. rasika

    rasika New Member

    i guess strummin goes like this:

    d dudu d dudu
     
  11. itsaidtya2000

    itsaidtya2000 New Member

    chords correct but. .

    chords the correct but they r posted at wrong intervals.. dats wat i think .. as in wen the chords r coming before u have posted it after that word has gone.. and vice-versa 2..
     
  12. thedyood

    thedyood New Member


    here are the tabs. it has been taken from the internet. but i have tweaked it a bit here and there to make it mroe accurate.

    i tried to paste it correctly, but something is going awry.

    as it is confusing whether or not to pluck two strings at a time ( due to the pasting), the entire solo has no notes that are to be plucked at the same time.

    lemme know if there are any mistakes.

    -edit
    i have attached the file

    bye :)
     

    Attached Files:

  13. tushar_punk

    tushar_punk New Member

    thx for da lead part.. mahn!
     
  14. strumbringer

    strumbringer New Member

    I think this should be accurate...

    I think there are a few mistakes in the earlier solo tab. I was working this out by ear, so decided to tab it out. I'm attaching it in GuitarPro format too, which makes it easier to learn.

    Let me know what you think!

    (edit - made a few mistakes, fixed).

    Code:
                                    But It Rained                                   
                                    (Ending Solo)
                                      Parikrama
    
    
    
          |---3---|   |---3---|   |--3--|  |--3--|                   
          E   E   E   E   E   E   S  S  S  S  S  S     H.            
    E||--------------------------------------------|----------------|
    B||--------------------------------------------|--12------------|
    G||-----------------------------------11-13-14-|----------------|
    D||--------------------------11-13-14----------|----------------|
    A||--------------12--14--16--------------------|----------------|
    E||--12--14--16--------------------------------|----------------|
    
    
       Q       Q     Q        Q     E   Q     E      E   E   Q     Q     
    ----------------------|----------------------|----------------------|
    ----------------------|------------------12--|----------------------|
    --14br----13----14----|--11----13--14--------|--14--13--11----------|
    ----------------------|----------------------|----------------14----|
    ----------------------|----------------------|----------------------|
    ----------------------|----------------------|----------------------|
    
    
       Q      H            Q.      E   E  E      H.            
    -------------------|---------------------|----------------|
    -------------------|---------------------|----------------|
    --11b-----L--------|---------------------|----------------|
    -------------------|--13------14--13--L--|--11------------|
    -------------------|---------------------|----------------|
    -------------------|---------------------|----------------|
    
    
                                                       |---3---|  
       E   E   E   E   E   E       E   E   E   E   E   S   S   S  
    --------------------------|---------------14--16--14h-16p-14-|
    --------------------------|-------14--17---------------------|
    --------------------------|--/16-----------------------------|
    --11----------------------|----------------------------------|
    ------14--12--11----------|----------------------------------|
    ------------------14--12--|----------------------------------|
    
    
               |---3---|                                                          
       E   E   S   S   S  E   E   E       H.               E   E   E   E   Q      
    --12--14--12h-14p-12-------------|-----------------|--16------16--17--17s----|
    ---------------------14--12--14--|--/19------------|------19-----------------|
    ---------------------------------|-----------------|-------------------------|
    ---------------------------------|-----------------|-------------------------|
    ---------------------------------|-----------------|-------------------------|
    ---------------------------------|-----------------|-------------------------|
    
    
       H.               H         Q        Q      Q      Q      
    --19------------|--19--------19----|--19b----19b----19b----|
    ----------------|------------------|-----------------------|
    ----------------|------------------|-----------------------|
    ----------------|------------------|-----------------------|
    ----------------|------------------|-----------------------|
    ----------------|------------------|-----------------------|
    
    
       Q     E   E   E   E      Q    Q     Q       Q     E   E   E   E   
    --19----19--17--16--17--|--16----L----16----|--L----19--17--16--17--|
    ------------------------|-------------------|-----------------------|
    ------------------------|-------------------|-----------------------|
    ------------------------|-------------------|-----------------------|
    ------------------------|-------------------|-----------------------|
    ------------------------|-------------------|-----------------------|
    
    
       Q     H            E   E   E   E    Q       Q     H         
    --16----16--------|--19--17--16--17s--19----|--L----19--------|
    ------------------|-------------------------|-----------------|
    ------------------|-------------------------|-----------------|
    ------------------|-------------------------|-----------------|
    ------------------|-------------------------|-----------------|
    ------------------|-------------------------|-----------------|
    
    
       E   E   E    E   E   E      E   E  E    E   E    E      Q     E   Q     E   
    --19--17--16s--12--12s--9--|---------------------------|--------19--19--------|
    ---------------------------|--12s--9--9s--12--12s--17--|--17--------------17--|
    ---------------------------|---------------------------|----------------------|
    ---------------------------|---------------------------|----------------------|
    ---------------------------|---------------------------|----------------------|
    ---------------------------|---------------------------|----------------------|
    
    
       Q     E   Q     E      Q     E   Q.         Q     E   Q     E   
    --------19--19--------|--------17--17------|--------16--17----16--|
    --16--------------16--|--------------------|--19------------------|
    ----------------------|--18----------------|----------------------|
    ----------------------|--------------------|----------------------|
    ----------------------|--------------------|----------------------|
    ----------------------|--------------------|----------------------|
    
    
       H.                Q      Q     E   E      E   E   E   Q         E    
    -----------------|-----------------------|-----------------------------|
    --19b------------|--19b----17------------|-----------------------------|
    -----------------|---------------18--16--|-----------------------------|
    -----------------|-----------------------|--18--16--14--16b----16g16h--|
    -----------------|-----------------------|-----------------------------|
    -----------------|-----------------------|-----------------------------|
    
    
       E   E   E   E   E   E      H.                H.               H.            
    --------------------------|-----------------|----------------|----------------|
    ----------------------17--|--17b------------|--17------------|---L------------|
    ----------14--16--18------|-----------------|----------------|----------------|
    --14--16------------------|-----------------|----------------|----------------|
    --------------------------|-----------------|----------------|----------------|
    --------------------------|-----------------|----------------|----------------|
    
    
       H.             
    ----------------||
    ---L------------||
    ----------------||
    ----------------||
    ----------------||
    ----------------||
    
    
    
    
    Duration Legend
    ---------------
    W - whole
    H - half
    Q - quarter
    E - 8th
    S - 16th
    T - 32nd
    X - 64th
    . - note dotted
    |-n-|  - n-tuplets
    
    
    Tablature Legend
    ----------------
    L - tied note
    x - dead note
    g - grace note
    (n) - ghost note
    > - accentuded note
    NH - natural harmonic
    AH - artificial harmonic
    TH - tapped harmonic
    SH - semi harmonic
    PH - pitch harmonic
    h - hammer on
    p - pull off
    b - bend
    br - bendRelease
    pb - preBend
    pbr - preBendRelease
    brb - bendReleaseBend
    \n/ - tremolo bar dip
    \n - tremolo bar dive
    -/n - tremolo bar Release up
    /n\ - tremolo bar inverted dip
    /n - tremolo bar return
    -\n - tremolo bar Release down
    S - shift slide
    s - legato slide
    / -  slide into from below or out of upwards
    \ -  slide into from above or out of downwards
    ~ - vibrato
    W - wide vibrato
    tr - trill
    TP - tremolo picking
    T - tapping
    S - slap
    P - pop
    < - fade in
    ^ - brush up
    v - brush down
    
    
     

    Attached Files:

  15. viper33ashes

    viper33ashes New Member

    thanks strumbringer!! awesum work in putting it as gp pro tab... i think this is the only gpro file of this song on the net... it sounds great too !!
    thanks for all the hard work..
     

Share This Page