Problem playing song

Discussion in 'English Guitar Tabs - Submit or Request' started by ultrabot90, Dec 4, 2007.

  1. ultrabot90

    ultrabot90 Like fishes need bicycles

    The powertab for Cemetery Gates by Pantera ( http://www.ultimate-guitar.com/tabs/p/pantera/cemetary_gates_power_tab.htm ) shows the interlude as -
    Code:
      F#m7                 F#m6                     Dmaj7/F#
    |-12---(12)---(12)-----11-|-(11)-------(11)-----10-|
    |-------------------------|------------------------|
    |--9----(9)----(9)------8-|--(8)--------(8)------7-|
    |-------------------------|------------------------|
    |-------------------------|------------------------|
    |-------------------------|------------------------|
                                       F#m                           F#m7
    |-(10)---17b19==(17)---(17)r==(17)-9-|-(9)---16b17====(16)r=(16)-12-|
    |--------10b12==(10)---(10)r==(10)---|--------9b10=====(9)r==(9)----|
    |--(7)-----------------------------6-|-(6)------------------------9-|
    |------------------------------------|------------------------------|
    |------------------------------------|------------------------------|
    |------------------------------------|------------------------------|
    Legend
    b   - bend
    r   - bend release (if no number after the r, then release immediately)
    (fret number)  - shows held/continued note
     =   - hold bend; also acts as connecting device for hammers/pulls
    
    Wtf...How is one supposed to play 17th fret on e string and 10th fret on B string at the same time?! O_O
    Please help me out. x_x
     
  2. ultrabot90

    ultrabot90 Like fishes need bicycles

    Uh, 22 views no replies...? Please help o.o
    EDIT -
    Oh wait, problem solved.
    The trick is that the same portion can also be played in a different manner. Eg for the first portion...
    Code:
      F#m7                 F#m6                     Dmaj7/F#
    |-------------------------|------------------------|
    |-17---(17)---(17)-----16-|-(16)-------(16)-----15-|
    |-------------------------|------------------------|
    |-14---(14)---(14)-----13-|-(13)-------(13)-----12-|
    |-------------------------|------------------------|
    |-------------------------|------------------------|
    
    So the troublesome part can actually be played as
    Code:
    |--17-|
    |-----|
    |--14-|
    |-----|
    |-----|
    |-----|
    
    Ha. Guess the original tabber was drunk/high/never actually played the song.
    -regards,
    ultrabot90
     

Share This Page