Post any song and get it tabbed in 2 days

Discussion in 'Hindi Guitar Tabs - Submit or Request' started by neal_killer, Apr 2, 2012.

  1. neal_killer

    neal_killer New Member

    hi guys if anyone needs any song lead tabbed or any lyrics to be tabbed just post it and u will get it in 2 days.
     
  2. neal_killer

    neal_killer New Member

    Just to start i m posting
    Halka Halka Suroor by Farhan Saeed Butt (Formerly JAL's lead vocalist) INTRO

    e ---------------------------------------------------------------------------------------------------5-------------------
    B --------------3--2--------3--2---------------3--2----------3------------------------3--2—2s7-----------(7s5s7)--------
    G --------------------------------------------------------------------2---4—4s7------------------------------------------
    D ----------------------------------------------------------------------------------------------------------------------
    A ------2------------------------------2---------------------------------------------------------------------------------
    E -------------------------------------------------------------------------------------------------------------------------

    (S - SLIDE)
     
  3. Alok raj

    Alok raj New Member

    can u pla give me tabs which are in the middle of song sajni pas bulao na fro jal bad
     
  4. Alok raj

    Alok raj New Member

    n plz tab one more song for me
    emptiness tune mere ana kavi nahi jana full guitar lead
     
  5. neal_killer

    neal_killer New Member

    The tabs are difficult and they used around 2-3 guitars for that but to make it simple i am posting its easier version

    and further if u need SAJNI live version tabs i can provide u that

    from 02:33

    e-------------------------------6h7-6-6---6-4s2-0--------------
    B--------------11-9h11-11-11----------------------4-5-5s7-5-4-2
    G------8-11-13-------------------------------------------------
    D-6-8-9--------------------------------------------------------
    A--------------------------------------------------------------
    E--------------------------------------------------------------

    e-----------------------------------------------------------
    B---0h2--2-------------------------------------------------2h4-4
    G-4----4--4-----------4-4-4s3-3-3---3-4-6-6-4-6-6-6-4-6-----
    D-----------6-4---4-6---------------------------------------
    A---------------6-------------------------------------------
    E----------------------------------------------------------

    e-------------4-6-8-9-9-12-11-12-9 --4-7-4-6-7---
    B-----------4------------------------------------
    G--------4h6-------------------------------------
    D-----4h6----------------------------------------
    A-4h6-------------------------------------------
    E-----------------------------------------------

    e-7-11-9h12-12-12--6-9-7h11-11-11--4-7-6h9-9-9-----7-4-7-4-7-2
    B-------------------------------------------------------------
    G-------------------------------------------------------------
    D-------------------------------------------------------------
    A------------------------------------------------------------
    E-------------------------------------------------------------


    e-4-7-4-6-7--------------------------
    B------------------------------------
    G-------------------------------4-4~6-
    D--------------------2-4-----4h6-------
    A-----------------2-4-----4h6----------
    E------------4-6---------------------



    *h-hammer
    *s-slide
     
  6. arup_89

    arup_89 New Member

    can you pick out the tabs of a benali song called "tistaan" by anupam roy......... its urgent.............
     
  7. Alok raj

    Alok raj New Member

    n sir plz tabb one more song wch i have mentioned above tune mere jana emptiness full guitar lead
     
  8. Alok raj

    Alok raj New Member

    sir post live version tabs of sajni which goher plays in middle of song
     
  9. Alok raj

    Alok raj New Member

    pyar deewana hota hai mastana hota hai n mere sapno ki rani kb aayegi tu full guitar tabs i need its urgent
     
  10. wylder

    wylder New Member

    Can you tab the guitar solo parts for "Purple Rain" on the album "Guitar Battle" by John Pettrucci, Al Pitrelli, Andy Timmons and Brad Gillis... Been searching for this online but can't find it. Any help is much appreciated.
     
  11. maheshakula

    maheshakula New Member

    Can you post guitar tabs for "aye udi udi" from saathiya? thanks a lot!!
     
  12. srrm

    srrm New Member

    Saathiya - Saathiya, just the intro guitar part where he finger picks those chords. I'm having a tough time figuring it out.

    Thanks!
     
  13. sukhjit

    sukhjit New Member

    Can you tell me chords used in "Pani da rang vekh ke" - Vicky Donor
     
  14. neal_killer

    neal_killer New Member

    Pani Da Rang (Chords) - Vicky Donor

    The intro is simple plucking on Em & D Strings - 4 3 1 2 3 (2 times on Em & 2 times on D major)

    the major chords used are E minor & D major
    and in some place G major

    Enjoy!!
     
  15. vijesh4ever

    vijesh4ever New Member

    Can u please please provide TABS for

    Mere falak kaa tu hi Sitaara [Tu mujhse rootha rahe] (from movie Showbiz)

    Tu mujhse rootha rahe
    Mujhe sanam shikayat nahi
    Na mujhse ikqrar kar
    Yeh maan lu mohabat nahi
    Tujhe bin jee sakhu lekin
    Yeh mujhe mein himmat nahi

    Tu mujhse rootha rahe
    Mujhe sanam shikayat nahi
    Na mujhse ikqrar kar
    Thanks lot !!LyricsMAsti.com
    Yeh maan lu mohabat nahi
    Tujhe bin jee sakhu lekin
    lyricsmasti.com
    Yeh mujhe mein himmat nahi

    Mere fhalak ka tu hi sitara
    Awara mujo ka tu hi kinara
    Abbb muskuara de
    Karde sahara
    Maan kehna mera

    Mere fhalak ka tu hi sitara
    Awara mujo ka tu kinara
    Abbb muskuara de Karde sahara
    Maan kehna mera

    Mein ek pukar tha
    Jaanejana mujhko
    Awaaz banya tune
    Mein khud se hogaya tha juda sa
    Mujhko mujhse milaya tune
    Ehsaan hai tera
    Rasta hai tu mera
    Tu Mera Ashiyan

    Mere fhalak ka tu hi sitara
    Awara mujo ka tu hi kinara
    Abbb muskuara de
    Karde sahara
    Maan kehna mera

    Mere fhalak ka tu hi sitara
    Thanks lot !!LyricsMAsti.com
    Awara mujo ka tu hi kinara
    Abbb muskuara de
    Karde sahara
    Maan kehna mera

    Tu Mere Khawabon mein
    Khayalo mein tu hi tu
    Tu mere tarano mein
    Tujhko jo pau mein
    Pajau baharein Tanhaa veerano mein
    Kkoi bhi woh rah guzar
    Tu mile jahan jidhar
    Hai manzil bas wahan

    Mere fhalak ka tu hi sitara
    Thanks lot !!LyricsMAsti.com
    Awara mujo ka tu hi kinara
    Abbb muskuara de
    Karde sahara
    Maan kehna mera


    better if its unplugged version (both by K.K)

    thanks in advance
    Cheers!
     
  16. Ramsk0408

    Ramsk0408 New Member

    Hi Mr. Neal_Killer, Nice to meet u... Can u pls post the tabs for Iktara song from Wake up sid.. pls...
    I'm damn looking for that...!! Can you please provide it here or even can mail me at ramsk0408@gmail.com....

    Thanks in advance,
    Ram.... :)
     
  17. RIshG

    RIshG New Member

    Hey dude I need the tabs for dis song . Can you please help me???????
    This song is a title song of the serial "kitani mohabbat hai" . Will be waiting for ur quick reply

    tumko chuke bhi chune ko karta hai dil......
    paake bhi paane ko karta hai dil..............
    aawargi aane lagi............
    saanson mein khushboo chaane lagi..........
    dil pe deewangi chagayi iss kadr..............
    bandh aankhon se bhi mujhko aaye nazar..............
    kaise kahe hume kitani mohabbat hai...........haan mohabbat hain ..............(2)
    mohabbat bhari lamhon ki hai haseen kahaaniyaan...............
    ooooooooooooooooooo
    mohabbat bhari lamhon ki hai haseen kahaaniyaan..........
    oo pyaar keliye hi humko mile zindgaaniyaan
    pyaar hi zindagi.............pyaar hi hai khuda
    yoohi chalne rahe pyaar ki raahon par
    ..........................
    tumko chuke bhi choone ko karta hai dil
    paake bhi paane ko karta hai dil
    aawargi aane lagi............
    saanson mein khushboo chaane lagi..........
    dil pe deewangi chagayi iss kadr..............
    bandh aankhon se bhi mujhko aaye nazar..............
    kaise,,,,,,,,hume kitni.....................kitni mohabbat hain..
    kaise,oooooooo,hume kitni,oooooooo,kitni mohabbat hain..........
     
  18. gcoolboy

    gcoolboy New Member

    hiiiiii , can u plz tab d song, abhi mujh mein kahin from Agneepath ?
     
  19. RIshG

    RIshG New Member

    abhi mujh mein kahin


    here are the tabs

    G|------0--2-0------------0---
    D|-2-2-----------3-0-2-------
    Abhi mujh mein kahin

    G|-2-0-------0h2-0----0-------
    D|-------3-3----------3---3-2--
    Baaqi thodi si hai zindagi

    G|------0--2-0------------0---
    D|-2-2-----------3-0-2-------
    Jagi dhadkan nayi

    G|-2-0-------0h2-0----0-------
    D|-------3-3----------3---3-2--
    Jaana zinda hoon main toh abhi

    B|----------0-1-0-------------------0-1-0---------
    G|----0-2----------2-0-------0-2----------2-0---
    D|-2-----------------------2-----------------------
    Kuch aisi lagan, iss lamhe mein hai

    B|----------0-1------0-1-3---
    G|----0-2--------2------------
    D|-2---------------------------
    Ye lamha kahaan tha mera

    e|--------0-----------------------0---------------
    B|-1-3------3-1-0-------1-3------3-1-0------
    G|--------------------2----------------------2--
    Ab hai saamne,Issey chhoo loon zaraa

    e|------------------0-----------
    B|-0-1------0-1-----3-1-1---
    G|-------2----------------------
    Mar jaaoon ya jee loon zaraa

    e|--------0-----------------------0---------------
    B|-1-3------3-1-0-------1-3------3-1-0------
    G|--------------------2----------------------2--
    Khushiyaan choom loon, Yaa ro loo'n zaraa

    e|------------------0------1-0--
    B|-0-1------0-1-----3---------
    G|-------2----------------------
    Mar jaaoon ya jee loon zaraa

    G|------0--2-0------------0---
    D|-2-2-----------3-0-2-------
    Abhi mujh mein kahin

    G|-2-0-------0h2-0----0-------
    D|-------3-3----------3---3-2--
    Baaqi thodi si hai zindagi

    B|-1-0--------------------------
    G|-------0-2-3-2-----------0--
    D|-------------------3-2-3-----
    Ho.. dhoop mein jalte huey tann ko

    G|-0-2-----2---1-----------
    D|-------2---------2-0-2--
    chhaya perh ki mill gayee

    B|-1-0--------------------------
    G|-------0-2-3-2-----------0--
    D|-------------------3-2-3-----
    Roothe bachche ki hansi jaise

    G|-0-2-----2---1-----------
    D|-------2---------2-0-2--
    phuslaane se phir khill gayee

    G|----------1-0--1-0--0-1--0-1--0-0----------------
    D|----0-2---------------------------------2--0-0--2--
    A|-3-----------------------------------------------------
    Kuchh aisa hi abb mehsoos dil ko ho rahaa hai

    B|-------------------------------------0-1---------------
    G|----------1-0--1-0-0--0-1-0--2--------2-----------
    D|----0-2---------------------------------------3-2-2---
    A|-3-------------------------------------------------------
    Barso'n ke puraane zakhm pe marham laga saa hai

    B|----------0-1-0-------------------0-1-0---------
    G|----0-2----------2-0-------0-2----------2-0---
    D|-2-----------------------2-----------------------
    Kuch ehsaar hai, iss lamhe mein hai

    B|----------0-1------0-1-3---
    G|----0-2--------2------------
    D|-2---------------------------
    Ye lamha kahaan tha mera

    e|--------0----------------------0---------------
    B|-1-3------3-1-0-------1-3------3-1-0------
    G|--------------------2----------------------2--
    Ab hai saamne,Issey chhoo loon zaraa

    e|------------------0-----------
    B|-0-1------0-1-----3-1-1---
    G|-------2----------------------
    Mar jaaoon ya jee loon zaraa

    (REST ARE SAME)

    Khushiyaan choom loon
    Yaa ro loo'n zaraa
    Mar jaaoo'n yaa jee loon zaraa
    Dor se tooti patang jaisi, thi ye zindagani meri
    Aaj ho kal ho mera naa ho
    Har din thi kahani meri
    Ik bandhan naya peechhe se abb mujhko bulaaye
    Aane waley kal ki kyun fikar mujhko sata jaaye
    Ik aisi chubhan iss lamhe me hai
    Ye lamha kahaan tha mera aa
    Ab hai saamne
    Issey chhoo loon zara
    Mar jaaoo'n ya jee loon zara
    Khushiyaan choom loon
    Yaa ro loo'n zaraa
    Mar jaaoo'n ya jee loon zara
     
  20. gcoolboy

    gcoolboy New Member

    hi thanks for the tabs, but i already have this tab chart but i can't play the line (baki thodi c hai zindgi) correctly. did u play it ?? & is it accurate??
    thanks for the nice help...
    and also if u can give me the INTRO TABS OF "RONA CHADTA" BY ATIF, , will wait for the reply
     

Share This Page