Poove Sempoove Tabs

Discussion in 'Tamil Guitar Tabs - Submit or Request' started by gopi2417, Sep 12, 2007.

  1. gopi2417

    gopi2417 New Member

    Hey guys have been browsing igt for kinda long time,hmm i love the song poove sempoove and tabbed it.There is also a acoustic version me and my friend did.i played the guitar and would like comments, gd or bad!
    link : http://youtube.com/watch?v=2aA7veYiGG0

    e-------------------10--------------
    b--7-10-10-12-10-10----10--12-8h7--
    g-----------------------------------
    d-----------------------------------
    a-----------------------------------
    e----------------------------------- (X 2)

    e-----------------------------------
    b--10-10-8-6--10-10-11-8--10-10-8-6-
    g-----------------------------------
    d-----------------------------------
    a-----------------------------------
    e-----------------------------------

    e-----------------------------------
    b--5--3-2-3-------------------------
    g-----------------------------------
    d-----------------------------------
    a-----------------------------------
    e-----------------------------------

    Cheers!
     
  2. y_muralee

    y_muralee New Member

    Will try it tonight and let you know.Also if possible Please give tabs for Un perai sonnalae (Dum Dum Dum).I have searched all the threads and couldn't find this.Will greatly appreciate your help brother.
     
  3. gawthamm

    gawthamm New Member

    coool dude.,..!!!
     
  4. shanki911

    shanki911 New Member

    Hi, can u also post chords for this songs also... Its will be greate
     
  5. benhur821

    benhur821 New Member

    Poove Sempoove

    Nice to see.Thank you
     
  6. sreenuisbusy

    sreenuisbusy New Member

    nice post

    keep working
     

Share This Page