Panangalla Vishamulla - Irandam Ulagam

Discussion in 'Tamil Guitar Tabs - Submit or Request' started by pranavbalu, Nov 17, 2013.

  1. pranavbalu

    pranavbalu New Member

    Hi,
    This is nice song
    play G barre chord

    INTRO:
    Cm G

    (Cm)panangalla visha mulla
    (G)oru ootha kaathu killa
    (G)un kobam enna kolla

    (Fm)adi sondham irundhum bandham irundhum
    (Gm)paavi nenju(Cm) eriyum
    (Fm)oru paithiyam pudicha pournami nilavu
    (Gm)megatha kilichu(Cm) yeriyum


    ponnu(Cm) manasu oru dhinusu
    adhil(G) mirugamum theivamum vaazhum x 2
    enna(Cm) panthadum mirugam
    kooru pottu(G) koothadum theivam
    ava(Cm) nenapa purivathile
    oru(Gm) aambala pozhappu kaliyum
    nee (Cm)konjam pola mella sirikka
    aathadi(G) enna panni naa tholaikka
    paarvaiyal(Cm) irudhayam nenaikutuma
    paadhatha(Gm) imaigalil varudatuma
    nee sollum(G#) vaarthaiku vasikatuma
    kobatha(G) kondaadi rasikatuma

    second stanza with same chords
    thanks,
    Pranav

    -----------------------------
    Reply me if it is correct
     
  2. sathish lion

    sathish lion New Member

    tabs venuma frnds !!!
     
  3. ashok_15189

    ashok_15189 New Member

    My Version

    INTRO:
    Cm (G/F)

    (Cm)panangalla visha mulla
    (G/F)oru ootha kaathu killa
    (G/F)un kobam enna kolla

    (Fm)adi sondham irundhum bandham irundhum
    (G/F)paavi nenju(Cm) eriyum
    (Fm)oru paithiyam pudicha pournami nilavu
    (G/F)megatha kilichu(Cm) yeriyum


    ponnu(Cm) manasu oru dhinusu
    adhil(Gm) mirugamum theivamum (G/F)vaazhum x 2 (Cm)(G/F)
    enna(Cm) panthadum mirugam
    kooru pottu(G/F) koothadum theivam
    ava(Cm) nenapa purivathile
    oru(G/F) aambala pozhappu kaliyum
    nee (Cm)konjam pola mella sirikka
    aathadi(G/F) enna panni naa tholaikka
    paarvaiyal(Cm) irudhayam nenaikutuma
    paadhatha(Gm) imaigalil varudatuma
    nee sollum(G#) vaarthaiku vasikatuma
    kobatha(G/F) kondaadi rasikatuma

    Thank you,

    Ashok Ravi
     
  4. pranavbalu

    pranavbalu New Member

    Intro tab
    Capo 3rd fret
    Am - Cm
    E - G

    Am -----------------------E
    e----------0--0--1--0-------------------0-----0---1--0--------------------------------------------------
    B------1----1----------1------------0------0------------1--------------------------------------------
    G---2----------------------------1---------------------------------------------------------------
    D----------------------------------------------------------------------------------------------
    A-------------------------------------------------------------------------------------------------
    E---------------------------------------------------------------------------------------------------

    Am-------------------------- E
    e--------------------1--0-------------------------------------------------------------------------
    B-----------1----1---------1---------------0---0--------------------------------------------------
    G---------2---2-------------------------1----1-----------------------------------------------------
    D------2-----------------------------2-----------------------------------------------------------
    A-------------------------------------------------------------------------------------------------
    E---------------------------------------------------------------------------------------------------

    Thanks,
    Pranav
     

Share This Page