onum puriala notes by lion intro

Discussion in 'Tamil Guitar Tabs - Submit or Request' started by sathish lion, Apr 6, 2014.

  1. sathish lion

    sathish lion New Member

    hi friends

    try this

    e------5--5-5-5-------
    b----------------3--3

    e------5--5-5-5-------
    b----------------3--3

    e------5--5-5-5-------
    b----------------3--3

    e---5\6--5----3--1--0


    e------5--5-5-5-------
    b----------------3--3

    e------5--5-5-5-------
    b----------------3--3

    e------5--5-5-5-------
    b----------------3--3

    e---5\6--5----3--1--0


    ensoy

    urs lovingly

    sathish.s
     

Share This Page