nirvana unplugged tabs 2

Discussion in 'English Guitar Tabs - Submit or Request' started by stendec, Jun 13, 2004.

  1. stendec

    stendec New Member

    heres the rest............


    Polly (Kurt Cobain) - Nevermind

    Voicings:

    E5 - 022x00
    G - 320033 or 320003
    D - x0023x
    C - x3555x
    <a href="http://www.ntsearch.com/search.php?q=Bb&v=56">Bb</a> - x1333x

    [During verse strum each line : E G D C]
    [During chorus strum each line: D C G Bb]

    Polly Wants a Cracker
    I think I should get off her first
    I think she wants some water
    To put out the blow torch

    It isn't me, we have some seed
    Let me clip your dirty wings
    Let me take a ride, don't hurt yourself
    I want some help to help myself
    I've got some rope, you have been told
    I promise you, I've been true
    Let me take a ride, don't hurt yourself
    I want some help to help myself

    Polly wants a cracker
    Maybe she would like more food
    She asks me to untie her
    A chase would be nice for a few

    [Repeat chorus]

    Bass bridge: Repeat 2x
    G-------------------------|-
    D----------0-0-0----------|-
    A----------------3-3-3-3--|-
    E--0-3-3-3----------------|-

    Polly said
    Polly says her back hurts
    And she's just as bored as me
    She caught me off my guard
    It amazes me, the will of instinct

    [Repeat chorus]

    ---
    On A Plain (Kurt Cobain) - Nevermind

    Voicings: (dropped-D tuning!)

    D - x 5 7 7 7 x
    D/G - 5 5 7 7 7 x
    A - x 0 2 2 2 x
    F/Bb - 8 8101010 x
    F5 - 3 3 3 x x x
    E5 - 2 2 2 x x x
    G5 - 5 5 5 x x x

    [Main Riff: D D/G A (F#) (G) (F#) (E)]
    [Chorus : D D/G F/Bb]
    [Bridge : F5 E5 A G5]

    I'll start this off
    Without any words
    I got so high that
    I scratched 'til I bled

    <a href="http://www.ntsearch.com/search.php?q=Love&v=56">Love</a> myself
    Better than you
    I know it's wrong
    So what should I do?

    The finest day
    That I ever had
    Was when I learned
    To cry on command

    [Repeat "Love myself..." part]

    I'm on a plain
    I can't complain
    I'm on a plain

    My mother died
    Every night
    It's safe to say
    Don't quote me on that

    [Repeat "Love myself..." part]

    The black sheep got
    Blackmailed again
    Forgot to put
    On the zip code

    [Repeat "Love myself..." part]
    [Repeat chorus]

    Somewhere I have heard this before
    In a dream my <a href="http://www.ntsearch.com/search.php?q=memory&v=56">memory</a> has stored
    As defense I'm neutered and spayed
    What the hell am I trying to say?

    It is now time
    To make it unclear
    To write off lines
    That don't make a sense

    [Repeat "Love myself..." part]

    One more special
    Message to go
    And then I'm done
    And I can go home

    [Repeat "Love myself..." part]
    [Repeat chorus]

    ---
    Something in the Way (Kurt Cobain) - Nevermind

    Voicings: (Dropped-D tuning!)

    F#5 - 444xxx
    D5(i) - 000xxx
    D5(ii) - x0023x

    [Pick during verse : F#5 D5(i)]
    [Strum during chorus: F#5 D5(ii)]

    Underneath the bridge
    The tarp has sprung a leak
    And the animals I've trapped
    Have all become my pets
    And I'm living off of grass
    And the drippings from the ceiling
    But it's ok to eat fish
    Cause they don't have any feelings

    Something in the way, Mmmm...
    Something in the way, yeah, Mmmm...
    Something in the way, Mmmm...
    Something in the way, yeah, Mmmm...

    [Repeat verse]
    [Repeat chorus 2x]

    ---
    Plateau (Curt Kirkwoord)

    Voicings:

    G - 320x33
    <a href="http://www.ntsearch.com/search.php?q=Bb&v=56">Bb</a> - 650x66
    Fsus2 - 1xx011
    G# - 4xx044

    Main Riff
    E--3-------6-------3-------6-------3-------6-------1-----|-
    B------------------------------------------------------1-|-
    G----------------------------------------------------0---|-
    D-----(0)-----(0)-----(0)-----(0)-----(0)-----(0)--------|-
    A---(2)-----(5)-----(2)-----(5)-----(2)-----(5)----------|-
    E--3-------6-------3-------6-------3-------6-------1-----|-

    Pre-chorus Chorus
    E--4------|- -|--1/3------------------------3--------|-
    B------4--|- -|--1/3-------------3-----3----3-----6--|-
    G----0----|- -|------------------3-----3----------7--|-
    D---------|- -|---------5--x-----3-----3----------8--|-
    A---------|- -|---------5--x--1-----------5----------|-
    E--4------|- -|-------3-------------1-----3---/6-----|-

    Many a hand has scaled the grand old face of the plateau
    Some belong to strangers and some to folks you know
    Holy ghosts and talk show hosts are planted in the sand
    To beautify the foothills and shake the many hands

    There's nothing on the top but a bucket and a mop
    And an illustrated book about birds
    You see a lot up there but don't be scared
    Who needs action when you got words

    When you're finished with the mop then you can stop
    And look at what you've done
    The plateau's clean, no dirt to be seen
    And the work it took was fun

    [Repeat Chorus]

    Well the many hands began to scan around for the next plateau
    Some said it was in greenland and some in mexico
    Others decided it was nowhere except for where they stood
    But those were all just guesses, wouldn't help you if they could

    Pre-outro
    E--4----------------4---6-----------------6--|-
    B---------4-------4------------6--------6----|-
    G--------------------------------------------|-
    D------0-------0------------0-------0--------|-
    A----3-------3------------5-------5----------|-
    E--4--------------------6--------------------|-

    Outro
    E-(0)--------------------------0-----|---------------------------------|-
    B--------------0-------2---------1p0-|-----2-------0-------0-------1p0-|-
    G------2-----2---2---2-------2-------|---2-------2---2---2-------2-----|-
    D----2-----2-------0-------0---------|-2-------2-------3-------0-------|-
    A--0-----0---------------3-----------|-------0---------------3---------|-
    E------------------------------------|---------------------------------|-

    ---
     

Share This Page