New Member And I Have got few tabs

Discussion in 'Hindi Guitar Tabs - Submit or Request' started by sharad_20000, Nov 25, 2003.

  1. sharad_20000

    sharad_20000 New Member

    HI there i am new member and would like to shre few tabs that i have manage, i have posted them on sit http://www.hindiguitartabs.com
    The songs are
    Jab Koi Batt Bigad jaye--kumar sanu(i dont remember the movie)
    Hooto se chulo tum-jagjit singh
    Dilbar mere kab tak mujhe aise hi tadpaoge-Satte pe satta
    Kambaqt ishq hai jo - pyaar tu ne kya kiya
    tum se kitna pyaar hai-company

    have a look at these tabs and let me know if there is any romm for improvements thanx
    :)
     
  2. preezer369

    preezer369 New Member

    this site isn't coming up...did u mean www.hindisongnotes.com?
     
  3. alirana

    alirana Old Time Guitarist

  4. preezer369

    preezer369 New Member

    hehe...
    :rule:
     
  5. preezer369

    preezer369 New Member

    Jab Koi Bat Bigad Jaye...

    is this one of them?

    D---0---0-----4----4--4-----2-4---------4----0----2---4----2---0-----
    A-----------------------------------------------------------------5--
    Jab Koi Baat Bi-gad Ja-ey Jab Koi Mush-kil Pad Ja-ye

    D----0----2-4----2-2----0-----------2--0------0--0--0----4--4---4--2---4--
    A--2----------------------2--0--2-----------------------------------------
    Tu-ma De-na Sa-th Me-ra O Hum Na-ma Na Ko-ie Hai Na Ko-ie Tha

    D---4-0--2--4-----4-2-0----2---------0---2--4----2-2----0-----------2-0---
    A-----------------------------2----2---------------------2---0--2---------
    Zin-da-gi-me Tum-ha-re Si-wa Tu-ma De-na Sa-th Me-ra O Hum Na-
     
  6. preezer369

    preezer369 New Member

    Dilbar mere

    What about this one?

    E-------------7----8--7--------7-----8-7---------8-7---------
    B-----------8---------------8--------------8---------8---10--
    G------9-----------------------------------------------------
    D---9--------------------------------------------------------
    Dil-bur me-re kab tak mu-jeh Ai-se hi tad-pa-o ge

    E------8---8-8-----7----7-8----7---------------------------------------
    B--10----------------------------10---7---10---7----8---7-7---8-7------
    G-------------------------------------------------------------------9--
    Mai Aa-(ag-dil) mai la-ga dun-ga wo ke pal mai pi-gal ja-o ge
     
  7. FinalPhase

    FinalPhase New Member

    dude, are u advertising or somerthing?:p Why are you coming here and posting links to other sites that have ur tabs...then just posting the damn tabs here....:p :p
     
  8. FinalPhase

    FinalPhase New Member

    Just found out its ur bday today...happy bday Ali and Id Mubarak!:beer:
     
  9. alirana

    alirana Old Time Guitarist

    :p thankuuuuuuuuuuuuuuu FinalPhase

    evybody else wish meee
    happy
    birthday
    aho:)
     
  10. NuageOutlaw

    NuageOutlaw New Member

    Many happy returns of the day....:) Party???:think: :p
     
  11. sharad_20000

    sharad_20000 New Member

    Sorry got the wrong site

    Hi there sorry about the site and the site is the one u said its is hindisongnotes.com and not hindhiguitartabs. I had misplaced the paper i had tabs on them and the site name in them so when i was typing this message i was looking for them and could not find them. It was stupid of me of not saving them on my hard disk now that u have pointed it out i will keep that in my mind and in future will post it on the site only thank you. By the way did u like the tabs i just hope they were easy and right. sorry and thanx once again bye :eek:
     
  12. preezer369

    preezer369 New Member

    HAPPY BIRTHDAY!!!!
    :bday:
     
  13. sharad_20000

    sharad_20000 New Member

    Hi there i have rec msg that few of the tabs that i have uploaded have few errors so i have tried to correct them and hope i have got them rightSong: Jab Koi Baat Bigad Jaye
    Tabed By: Sharad Gandhi
    E-Mail: Sharad_20000@hotmail.com
    I think that there are many places where it need improvements.
    See if u can do any good then please mail me and also tell me.

    D---0---0-----4----4--4-----2-4---------2----0----2---4----2---0-----
    A-----------------------------------------------------------------2--
    Jab Koi Baat Bi-gad Ja-ey Jab Koi Mush-kil Pad Ja-ye

    D----0---2-4----2-2----0---------------2--0---0--0--0----4--4---2--0---4-
    A--2------------------------2--0--2-----------------------------------------
    Tu-ma De-na Sa-th Me-ra O Hum Na-ma Na Ko-ie Hai Na Ko-ie Tha

    D-4-0--2--4-----4-2-0------2--------0-----2--4----2-2------0----------2-0---
    A---------------------------------2---2------------------------2-----0-2--------
    Zin-da-gi-me Tum-ha-re Si-wa Tu-ma De-na Sa-th Me-ra OHum Na-ma
     
  14. sharad_20000

    sharad_20000 New Member

    Song: Kambaqt Ishq Hai Jo
    Film: Pyaar Tune Kya Keya
    Tabbed By: Sharad Gandhi
    E Mail: Sharad_20000@hotmail.com
    Please do send me comments on how u did find it and any room for improvements then surely do. thank you

    E----7-12---10-9---10---7------7-12---10-9---10--7--
    Kambakt ishq hai joo sara jahan hai wo

    E-----9-7----5-5---5---7-5----4-4----4---- (Repeat twice as per song)
    kaba aata hai kaba jaata hai

    E----5-4---7--5---4---7---5---4----7-4-5------------7-5---4-0-0---0--
    par reh-ta hai jab tak yeh kambakhat (pause) janat dikhata hai
    (1 sec)
     
  15. sharad_20000

    sharad_20000 New Member

    New Tab- Joggers Park-Ishq Hota Nahi

    Song: Ishq Hota Nahi Sabhi Ke Liye
    Movie: Joggers Park
    Singer: Adnan Sami
    Tabbed By: Sharad Gandhi

    I dont know the song so i have just put in the last few lines as i remember

    E---------9---7-5--7-7--4---5-4----9---9-7--5---7---7-5--4--
    B--9-7--9---------------------------------------------------
    G-----------------------------------------------------------
    Ishq Ho-ta Nahi Sabhi Ke Li-ye Yeh Bana Hai Yeh Bane ga

    E--5-4--7--4-4
    Sabhe ke liye
     
  16. juliustalent

    juliustalent New Member

Share This Page