need tabs of sm rhymes

Discussion in 'English Guitar Tabs - Submit or Request' started by dark_angel, Nov 10, 2005.

  1. dark_angel

    dark_angel New Member

    Hey...
    I need tabs of the following Rhymes for by Brother...

    Old MacDonald Had A Farm,
    Row, Row, Row Your Boat
    Twinkle, Twinkle, Little Star
    and the alphabet song...

    Thanx in advance!!!
    ...:)...
     
  2. vini

    vini Repeat Offender

    twinkle twinkle::

    e--------3-3-5-5-3-1-1-0-0------------------------------------------------------
    B--1-1--------------------------3-3--1--------------------------------------

    twinkle tw lil star how i wonder wot ur

    e--3-3-1-1-0-0------3-1-0-------------------------------------------------------
    B-------------------3------------3-1-1-1------------------------------------
    up above the world so high..like a diamond in d sky

    i think same is for abcd rhyme!
     
  3. bjr

    bjr Lady of the Evening

    Do you want chords or tabs?
     
  4. vini

    vini Repeat Offender

    BJR bhaiya plz post twinkle twinkle's chords..wanna play for my niece..i think its in C scale
     
  5. akkyy21

    akkyy21 #%@!$&

    Hey... chk out these simple tabs for Twinkle Twinkle


    G-0-0-7-7-9-9-7--5-5-4-4-2-2-0-
    D------------------------------
    A------------------------------
    E------------------------------

    "Up above the world so high..." etc.

    G-7-7-5-5-4-4-2-
    D---------------
    A---------------
    E--------------- x2

    G-0-0-7-7-9-9-7--5-5-4-4-2-2-0-
    D------------------------------
    A------------------------------
    E------------------------------

    Had recorded this with my 4 year old nephew singin on it.

    Chk it out if poss just for tp.... http://www.soundclick.com/akkyy
     
  6. dark_angel

    dark_angel New Member

    @BJR.... Tabs...
     
  7. akkyy21

    akkyy21 #%@!$&

    btw,... the twinkle twinkle n the alphabet song has the same tune.
     
  8. dark_angel

    dark_angel New Member

    Thanx all of u...
     
  9. abhimanjrekar

    abhimanjrekar ----> Zhol-Man<----

    plz check haan..don play directly for ur niece..if he/she doesnt like it..then u r in trouble ..heheheh...


    C.................F....C..
    twinkle twinkel little star
    F.......C.....G....C
    how i wonder wht u r
    C.................F....C..
    up above the world so high
    F.......C.....G....C
    lie a diamond in the sky
     
  10. har1s

    har1s <b>Untitled</b>

    hmm tabs for row row row ur boat


    e--0-0-0-2-3-3-2-3-5-0
    row row row ur boat....gently down the stream


    e--7-7-7-5-5-5-3-3-3-1-1-1-5-5-3-3-1
    merrily merrily merrily merrily, life is all a dream

    OLD McDonald ..
    e--3-3-3-0-2-2-0--7-7-5-5-3-----------------------------------
    old macdonals had a farm eya eya yoo
    e---0-3-3-3-0-2-2-0-7-7-5-5-3------------------------
    and on his farm he had some cows...eya eya yoo
    e-0-0-5-5-5-0-0-5-5-5-5-5-5-5-5-5-5-5-5--------------------------
    n a moo moo here, n amoo moo there...here moo there moo everywhere moo moo
    e--3-3-3-0-2-2-0--7-7-5-5-3-----------------------------------
    old macdonals had a farm eya eya yoo


    PS: give reps if u like my work ;)
     
  11. vini

    vini Repeat Offender

    nice chords!!...but some problem here^ i guess

    thanx a lot
     
  12. vini

    vini Repeat Offender

    isnt it like this>>

    C.................F....C........G
    up above the world so high

    wotsay?
     
  13. bjr

    bjr Lady of the Evening

    bwahaha....bhaiya? I think I'm 4 years younger than you!


    I made my own version of twinkle twinkle little star ages ago...a part of which you can see in this recording called medley. Don't check out the other Jam thing, its only the background for an online jam that I'd tried. Check out the "medley" where the description is "my 2 favourite songs murdered".


    http://www.soundclick.com/bonjovirules




    It's in the G scale and different from what abhi has posted.


    G---------Bm------C------D---
    Twinkle Twinkle Little Star
    C-------G---------D----------G
    How I wonder what you are
    Em--C----------G----------D----
    Up above the world so high
    Em-----C---------G-------D---
    Like a diamond in the sky
     
  14. bjr

    bjr Lady of the Evening

    You'll have to really really crank up your volume....I can barely hear the song myself.
     
  15. bjr

    bjr Lady of the Evening

    Okay old mcDonald:

    Play on any string

    -5-5-5-0-2-2-0-9-9-7-7-5- (x2)

    0-0-5-5-5-0-0-5-5-5---

    -5-5-5-5-5-5-5-5-5-5-5--


    I know it looks silly but the only thing that changes in the last line (here a quack there a quack) is the timing of the notes.

    The chords:

    C----------------F-------C---
    Old McDonald had a farm
    C-------G-------C----
    ee-yai-ee-yai-ooh

    Same chords for the next two lines and then:
    C-------------------------------------------------------------
    With a quack quack here and a quack quack there
    C----------------------------------------------------------------
    Here a quack, there a quack everywhere quack quack




    Row row row your boat:

    -0-0-0-2-4-

    4-2-4-5-7-

    12-12-12-7-7-7-4-4-4-0-0-0-(here each note is fast...each set of 3 notes stands for "merrily")

    -7-5-4-2-0-


    Chords:
    E--------------------------
    row row row your boat
    G#m--------------------E-
    gently down the street
    C#m---G#m----E--------------
    merrily merrily merrily merrily
    E---------------------------
    gently down the street




    Good luck with the brat...I hope he's impressed. I tried to play songs for a little girl and all she wanted was "It's the time to disco" :'(
     
  16. abhimanjrekar

    abhimanjrekar ----&gt; Zhol-Man&lt;----

    hey bjr thx for chords..
     
  17. har1s

    har1s <b>Untitled</b>

    wat abt my tabs??? :(
     
  18. bjr

    bjr Lady of the Evening

    Incorrect, as far as I can tell...
     
  19. vini

    vini Repeat Offender

    @ bjr
    y cant a 4 yrs younger cant be called bhaiya? ;) lolz

    ur twinkle twinkle chords are quite nice n different... :think:
     
  20. bjr

    bjr Lady of the Evening


    psh, whats in a name....bhaiya is fine by me.



    yeah, I think twinkle twinkle chords are probably different from what other people use.
     

Share This Page