Need guitar tabs for song

Discussion in 'Hindi Guitar Tabs - Submit or Request' started by BRIAN1SAM, Jun 16, 2006.

  1. BRIAN1SAM

    BRIAN1SAM New Member

    Need guitar tabs

    Hi Guys,
    Great website. Thanks for doing a fabulous job. Can anyone give me guitar tabs for "Dil aisa kisine mera toda" from the movie AMANUSH sung by Kishore Kumar? Thanks very much.
    Brian
     
  2. iprakash

    iprakash Proud IGTian

    I can tab it but why do you need it :shock:

    BTW its TODA and not THODA. Both are Hindi words with completely different meaning.
     
  3. BRIAN1SAM

    BRIAN1SAM New Member

    dil aisa kisine mera toda

    Prakash,thanks for the correction.I don't speak hindi.My grandparents were from U.P but I wasn't born in India though I love hindi songs very much. I'm just getting into lead guitar and tabs and thats the reason I need them. Thanks again.
     
  4. iprakash

    iprakash Proud IGTian

    Dil Aisa Kisi Ne Mera Toda - Amanush

    Ok, now I understand. But the choice of the song for leading is not appropriate. However I have tabbed it for you.

    You would notice I have put in notes multiple times. Its because that is how I play them. You can very well skip any extra duplicate notes you feel don't sound good when you play.

    Code:
    Line 1
    e|------------------------------------------------------
    B|------------------------------------------------------
    G|-------6-6------------6-6-6-6-------------------------
    D|--7-7------9-7--7-7-----------9-9-7-7---7-7-7-7-9-7-5-
    A|------------------------------------------------------
    E|------------------------------------------------------
        Dil  ai--s-a  ki----si  ne  me--ra    to------d-a-a
    
    Line 2
    e|------------------------------------------------------
    B|------------------------------------------------------
    G|---------9-9-7-7-6-6----------------------------------
    D|---7-7-7-------------9-9-9-9-9--7-7--7----7-----------
    A|------------------------------------------------------
    E|------------------------------------------------------
         Bar--badi ki    ta--r--a--f  aisa mo---da
    
    
    Line 3
    e|------------------------------------------------------
    B|------------------------------------------------------
    G|----9-9--9--9-9-9-9-9---------------------------------
    D|---7--------------------------------------------------
    A|------------------------------------------------------
    E|------------------------------------------------------
         Ek bhale m-anush ko 
    
    Line 4
    e|------------------------------------------------------
    B|---------8-8-8----------------------------------------
    G|---9-9-9-------10-9-9-9-9-9--7--6-6-6-6---------------
    D|----------------------------------------9-7-----------
    A|------------------------------------------------------
    E|------------------------------------------------------
         Ama---nush   ba-na------- ke chh-o d-a-a
    
    
    Let me know whether you liked it. It was difficult to tab though :dance:
     
  5. tripravi

    tripravi New Member

    Please give the chords also. Thank you
     

Share This Page