Download IGT Android App Download IGT Android App

Natrang theme tabs updated

Discussion in 'Marathi Guitar Tabs - Submit or Request' started by passione4guitar, Oct 12, 2012.

Download IGT Android App Download IGT Android App
  1. passione4guitar

    passione4guitar New Member

    Download IGT Android App Here in this very forum, the following tabs were uploaded, I have added the second half of the song. Hope you'll like it.


    E|--------5-5-5-6-8-6-------------------------
    B| ----6----------------8-5-6-8-6--------------
    G| --7-----------------------------7---6-7-7-7-
    D|-----------------------------------8---------

    ***************************************
    Updated second half:


    E|-----------------5---------------------------------
    B| ----5-7-7-7-8-----8-6-5----6-8-6-5-5--------------
    G| --7-----------------------------------------------
    D|--------------------------------------------
     
    Download IGT Android App
Download IGT Android App

Share This Page

Download IGT Android App Download IGT Android App