Naiza Hassan - Dil Ki Lagi

Discussion in 'Hindi Guitar Tabs - Submit or Request' started by hehaa, Nov 29, 2004.

  1. hehaa

    hehaa New Member

    ~~~~Hia!!! TO all guitarist~~~~

    ha any 1 can provide me TABS + CHORDS + Streaming of the nazia hassan song DIl ki lagi...

    plz notice to all u copiers out there, dont copy paste the already present file dil_kilagi.txt.txt.... again., i have used it, this time plz put something pure and something gr8.

    ~~~~~~~~~~* thankxxx *~~~~~~~~~~~~
     
  2. invincible2k

    invincible2k New Member

    Standard tuning

    ~~ Long Vibrato ~ Short vibrato
    h Hammer on p Pull off
    s Slide ( ) Legato -Play only first note
    b Bend r Release

    Chords: B(224442), F#(244322), E(022100)

    Intro

    Riff 1
    e-------------------------------------------------------------------------------------
    B-------------------------------------------------------------------------------------
    G-8-6-8-6----------6-------------------------8-6-8-6-----11~~-6-----------------------
    D---------9-8~-8-9----6~~-6~~-(6s9)-8-8-6------------9------------9-6~~-6~~-9-8-8-6---
    A-----------------------------------------9-----------------------------------------9-
    E-------------------------------------------------------------------------------------

    Riff 2
    e-------------------------------------------------------------------------------------
    B--------9~~-11-12-11-9-11-12-11-9-11-12-11-9~~-------------------9-7~~---------------
    G-(8h11)----------------------------------------8~~-6-8-(8s9p8h9)---------------------
    D-------------------------------------------------------------------------------------
    A-------------------------------------------------------------------------------------
    E-------------------------------------------------------------------------------------

    e-------------14--------------------------------------------------------------------------
    B-14-12-14-12----14-12-11----------16-14-16-14-12-11~~-11-12-(12s14)-9-9-(9s12)-11-11-9-7-
    G-------------------------13-11-----------------------------------------------------------
    D-----------------------------------------------------------------------------------------
    A-----------------------------------------------------------------------------------------
    E-----------------------------------------------------------------------------------------

    e-----------------14~~-11-14-11-16-14-16----------------------------------------------
    B-16-14-16-14-12-------------------------(9s12)-11-11-9-7-4~~-------------------------
    G-------------------------------------------------------------------------------------
    D-------------------------------------------------------------------------------------
    A-------------------------------------------------------------------------------------
    E-------------------------------------------------------------------------------------

    Chorus:

    B E B E F# B
    Dil ki lagi kuch aur bhi dil Ko Dewana kare

    B E B E F# B
    Dil ki lagi kuch aur bhi dil Ko Dewana kare

    e------------------------
    B-------------9-9-(9s11)-
    G------8-9-11------------
    D-9-11-------------------


    F# E F# B
    Meri Iltija Hai Khuda Say Dua Hai Do Dil Judaa naa Karay

    Repeat Chorus

    Solo 1:

    Play Intro Riff 1

    e---------------------------7--------------7---7---7---7---7---7---7-b9r7h---7-
    B----7-9-9-7----9-9-7-----7---b9r9-7---7-9---8---8---8---8---8---8---------8---
    G-8----------8---------8-------------8-----------------------------------------
    D------------------------------------------------------------------------------
    A------------------------------------------------------------------------------
    E------------------------------------------------------------------------------

    e-12-11----12---------------------6-7-6--14-12-11------------------------------
    B-------14----14-12-14-12-11-12-------------------14-12-11---------------------
    G----------------------------------------------------------13-11-9-8-6--------- then
    D------------------------------------------------------------------------------
    A------------------------------------------------------------------------------
    E------------------------------------------------------------------------------

    Play Intro Riff 1



    B F# B F#
    Deewane Chup kaisay rahein aao Duniya say yeh kahein

    e------------------------
    B-------------9-9-(9s11)-
    G------8-9-11------------
    D-9-11-------------------

    F# E F# B
    Jissay Humse milna gawaara nahin hai hum say mila na karay

    Repeat Chorus

    Solo 2:

    e-------------------------------------------------------------------------------------
    B----------11-9-----------------------------------------------(4s9~~)-----------------
    G-8---8h11-------8---8h11---8-9-8----8------------------------------------------------
    D---9--------------9--------------11---11-9-11-9-(8h9p8)-6~~--------------------------
    A-------------------------------------------------------------------------------------
    E-----------------------------------------------------------------

    howz that copy paste lolz (hehaa)
     

Share This Page